#табулатура

    
Nice To Know You

intro and verse
G||----------------------------------------------|
D||----------------------------------------------|
A||----------------------------------------------|
E||-12-14-15-12-10-10-12-14-14-12-14-15-12-10-10/|

little part between verse and chorus
G||---------------------------------------------------------------------------------|
D||----------------------------------------7/5-5-5-5-5-5-5-5-4-4-4-4-4--------------|
A||---------------------5h7-7-7-7-7-7-7-7/9------------------------------7-7-7-5-5-5|
E||-5-5-5-5-5-5-5-5-5h7-------------------------------------------------------------|

G||-----------------------------------------------------------------------------|
D||----------------------------------------7/5-5-5-5-5-5-5-5-8-8-8-8-8-8-8-8-8--|
A||---------------------5h7-7-7-7-7-7-7-7/9-------------------------------------|
E||-5-5-5-5-5-5-5-5-5h7---------------------------------------------------------|

Chorus
G||----------------------------------------------|
D||----------------------------------------------|
A||-7h9-9-7-5-5-7h9-9-7h9-9-7-5-5-7h9-9/12-12-12-|
E||----------------------------------------------|

breakdown part
play as many times nessecary
G||----------------------------------------------|
D||----------------------------------------------|
A||--5---3--0-1-3-5---3--0--0-1-3----------------|
E||----------------------------------------------|

© Авторские права на тексты, песни, видео и другую представленную информацию принадлежат правообладателям. Аккорды, табы, gtp и тексты песен взяты из открытых источников.
Возрастная категория сайта: 18+
Тексты некоторых песен могут содержать нецензурные выражения, брань.
© 2021 guitar-chords.ru