Wish You Were Here

Tuning: Standard E A D G B E
^ - Hammer On
\ - Slide Up
/ - Slide Down
Intro Part 1
Clean (For better sound, try an acoustic for this part)
E|-------------------------------------------------------------------
B|-------------------------------------------------------------------
G|-------------------------------------------------------------------
D|-7-77^9--9-9-9-9--9--4--4-4/7--7--2-22-2-------------------------
A|-7-77-7--7-7-7-7--7--2--2-2/5--5--2-22-2-------------------------
E|-------------------------------------------------------------------
Play twice, then go into this...
Intro Part 2/Chorus
Medium Distortion
"I... wish you were here..."
E|-------------------------------------------------------------------
B|-------------------------------------------------------------------
G|-------------------------------------------------------------------
D|-7--7-7-/-99--9-9-9-9--4--44-/-77--2-2---------------------------
A|-7--7-7-/-77--7-7-7-7--2--22-/-55--2-2---------------------------
E|-5--5-5-/-77--7-7-7-7--2--22-/-55--0-0---------------------------
End on...
E|---
B|---
G|---
D|-7-
A|-7-
E|-5-


© Авторские права на тексты, песни, видео и другую представленную информацию принадлежат правообладателям. Аккорды, табы, gtp и тексты песен взяты из открытых источников.
Возрастная категория сайта: 18+
Тексты некоторых песен могут содержать нецензурные выражения, брань.
© 2022 guitar-chords.ru