v strum down
^ strum up
you'll have to find the lyrics somewhere else. I are not to good words
-|-------------------------------------------------|--------------|-----------
-|-------------------------------------------------|--------------|-----------
-|----4-4-4----4-4-x-4--4------------------------9-|-------9-/-11-|-----------
-|------2-2----2-2-x-2--2-----4-4-4/7--2-2-2-9--9-|-2-2-2--------|-----------
-|-0--------2--------------4--4-4-4/7--2-2-2-7--7-|-2-2-2-7-/-9--|-----------
-|----------0--------------2-------/5--0-0-0-7--7-|-0-0-0--------|-----------
 intro^ v ^ v  ^ v ^ v  ^  v  ^ v ^ v   ^ v ^ v  ^   end   v   v
-|--------------------------------------------------|-------------------------
-|-0--0-0-0-0--0-0-0-0--0---------------------------|-------------------------
-|-4--4-4-4-4--4-4-4-4--4-------------------------9-|-------------------------
-|-2--2-2-2-2--2-2-2-2--2--4--4-4-4--7--2-2-2-9--9-|-------------------------
-|-0--0-0-0-2--2-2-2-2--2--4--4-4-4--5--2-2-2-7--7-|-------------------------
-|----------0--0-0-0-0--0--2--2-2-2--5--0-0-0-7--7-|-------------------------
 chorus                              ^
-|---------------------------------------12-----------------------------------
-|----7---7---7------7------7---------------109h10------7---7---7------7------
-|--9---9---9---6--9---6--9---6-------11--------------9---9---9---6--9---6----
-|-------------------------------9/11-----------------------------------------
-|----------------------------------------------------------------------------
-|----------------------------------------------------------------------------
    v ^ ^ ^ v ^ v  verse         v    v  ^  ^
------------------------------|-----------------------------------------------
---7-----------9--------7-----|-----------------------------------------------
-9---6-------9---11---9---9---|-----------------------------------------------
--------9/11------------------|-----------------------------------------------
------------------------------|-----------------------------------------------
------------------------------|-----------------------------------------------
             v ^ v    v ^ v

© Авторские права на тексты, песни, видео и другую представленную информацию принадлежат правообладателям. Аккорды, табы, gtp и тексты песен взяты из открытых источников.
Возрастная категория сайта: 18+
Тексты некоторых песен могут содержать нецензурные выражения, брань.
© 2021 guitar-chords.ru