#табулатура

    Powerslave `84
Aces High

  Intro (Slightly muted)
  Gtr.1  Repeat(15x)  Fill
e|------------------|-----------------|
B|------------------|-----------------|
G|*-----------6----*|--4-6-4----------|
D|*--6--7-9-6---9--*|--------7-6------|
A|------------------|-----------------|
E|------------------|-----------------|
 |                                    |
 |Gtr.2                               |
e|------------------|-----------------|
B|------------------|-----------------|
G|*-----------6----*|-----------------|
D|*--6--7-9-6---9--*|--6-7-6----------|
A|------------------|--------9-7------|
E|------------------|-----------------|
 Harmony

  Gtr.1
e|----------------------------|---------------------------------------|
B|----------------------------|---------------------------------------|
G|------------------9-9-------|----------------------------9---------*|
D|--10--9-10-9-10-9-----10----|-10--9-10-9-10--12-12-12-12---12-10-9-*|
A|----------------------------|---------------------------------------|
E|----------------------------|---------------------------------------|
 |                                                                    |
 |Gtr.2                                                               |
e|----------------------------|---------------------------------------|
B|----------------------------|---------------------------------------|
G|----------------------------|--------------------------------------*|
D|--------------------10-10---|-------------------------------12-10--*|
A|--12--10-12-10-12-10-----12-|-12--10-12-10-12--9-9-9-9-10-9---------|
E|----------------------------|---------------------------------------|
  There goes the siren ....
e|----------------------------------|-----------------------------------|
B|----------------------------------|-----------------------------------|
G|*---------------------------------|----------------------------------*|
D|*-9-11-12-14-12-11--7-12-11--7-11-|--9-10--12--14--12-11--9--12--7---*|
A|--7--9-10-12-10--9--5-10--9--5--9-|--7--9--10--12--10--9--7--10--5----|
E|----------------------------------|-----------------------------------|
  Jump in the cockpit and start ....
e|----------------------------------|-----------------------------------|
B|----------------------------------|-----------------------------------|
G|*---------------------------------|----------------------------------*|
D|*-2--4--5--7--5--4--2--5--4-------|-2--4--5--7--5--4--2--5--4--------*|
A|--0--2--3--5--3--2--0--3--2--5--7-|-0--2--3--5--3--2--0--3--2--5------|
E|-----------------------------3--5-|----------------------------3------|

© Авторские права на тексты, песни, видео и другую представленную информацию принадлежат правообладателям. Аккорды, табы, gtp и тексты песен взяты из открытых источников.
Возрастная категория сайта: 18+
Тексты некоторых песен могут содержать нецензурные выражения, брань.
© 2021 guitar-chords.ru