#табулатура

    "Brave New World"
Blood Brothers

You need to listen to the song to get the rhythm of the riffs above

RIFF1:        
e|---------8---7----7--------------------------
B|-9---7-9-------10----10-8-10-8-7-------------
G|---------------------------------------------
D|---------------------------------------------
A|---------------------------------------------
E|---------------------------------------------

RIFF2:        
e|-------------------7-10---7----7-----------7-
B|---7-8-7-8-10-8-10----------10-----10-8-10---
G|-9-------------------------------------------
D|---------------------------------------------
A|---------------------------------------------
E|---------------------------------------------

e|----7-10---7----7----------------------------
B|-10----------10-----10-8-10------------------
G|---------------------------------------------
D|---------------------------------------------
A|---------------------------------------------
E|---------------------------------------------

e|------7--------------------------------------
B|-8-10-----10-8-10---8-7----------------------
G|------------------------9--------------------
D|---------------------------------------------
A|---------------------------------------------
E|---------------------------------------------

e|---------------------------------------------
B|---7-8---7---7-------------------------------
G|-9---------9-----9-7-9-----------------------
D|-----------------------9---------------------
A|---------------------------------------------
E|---------------------------------------------

e|---------------------------------------------
B|---7-8---7---7-------------------------------
G|-9---------9-----9-7-9-----------------------
D|---------------------------------------------
A|---------------------------------------------
E|---------------------------------------------

e|---------------------------------------------
B|---7-8---7---------7-------------------------
G|-9---------9-7---9---9-----------------------
D|---------------------------------------------
A|---------------------------------------------
E|---------------------------------------------

RIFF3:        
e|---7----7---8-7------------------------------
B|-----10-----------10-8-----------------------
G|-9-------------------------------------------
D|---------------------------------------------
A|---------------------------------------------
E|---------------------------------------------

RIFF4:        
e|---------------------------------------------
B|---------------------------------------------
G|---------------------------------------------
D|---------------------------------------------
A|---------------------3-5-3-5-----------------
E|-5-3-0---5-3-0---5-3---------0---------------

Chords:
Em : 022xxx
G :  355xxx
C :  8(10)(10)9xx
D :  (10)(12)(12)(11)xx

INTRO:
(Em |G |C |D ) x3 and then (Em |G |D |C )
(RIFF1) x4
verse 1
verse 2
CHORUS:
(Em |C |G |D ) x4
verse 3
CHORUS
(RIFF1) x4
verse 4
verse 5
CHORUS
(RIFF1) x4
SOLO 1
(RIFF3) x8 silence...
(RIFF4) silence...
(RIFF2) x3  verse 6 while playing RIFF2 by the second time
SOLO 2
CHORUS x2
(RIFF1) x4  final verse while playing RIFF1 by the last time
That's it!!!

© Авторские права на тексты, песни, видео и другую представленную информацию принадлежат правообладателям. Аккорды, табы, gtp и тексты песен взяты из открытых источников.
Возрастная категория сайта: 18+
Тексты некоторых песен могут содержать нецензурные выражения, брань.
© 2021 guitar-chords.ru