#табулатура

    
Mother Russia

Here is the intro of Mother Russia - Iron Maiden 1990
I think I it is O.K.
                                          /hold
                                          |
e|---------------------|---------------------|
h|---------------------|---------------------|
g|----9-10-7-9----7----|----9-10-7-9----7----|
D|--7----------10---9--|--7----------10---9--|
A|---------------------|---------------------|
E|---------------------|---------------------|
                                      /hold     /hold
                                      |
e|---------------------|---------------------|
h|---------------------|---------------------|
g|----9-10-7-9----7----|----5-7-5-7-4--------|
D|--7----------10---9--|--5-----------7------|
A|---------------------|---------------------|
E|---------------------|---------------------|
Sorry, that's all.

© Авторские права на тексты, песни, видео и другую представленную информацию принадлежат правообладателям. Аккорды, табы, gtp и тексты песен взяты из открытых источников.
Возрастная категория сайта: 18+
Тексты некоторых песен могут содержать нецензурные выражения, брань.
© 2021 guitar-chords.ru