"Somewhere In Time" (1986)
Stranger in A Strange Land

Main Riff
e|---------------------|---------------------|
B|---------------------|---------------------|
G|---------------------|--------------------*|
D|---9--8--9--7--------|--9--8--9--7---5----*|
A|---7--7--7--7--9h10--|--7--7--7--7---5-----|
E|---------------------|---------------------|

Fill 1
e|-----------------------------|
B|-----------------------------|
G|------------0----------------|
D|----------0------------------|
A|--0--2--3------2-------------|
E|-----------------------------|

Fill 2
e|---------------------------|--------------------------|
B|---------------------------|--------------------------|
G|---------------------------|--------------------------|
D|---------------------------|--------------------------|
A|-----------5-----2-----0h2-|---------5-----2----------|
E|---0--3--5---5---0--0--0---|-0--3--5---5---0----------|

Solo (Adrian)
e|---------------------------------------|-----------------------------|
B|---12---13--12h13p12-------------------|----12-13-12-----------------|
G|---------------------14-12-11-12-14----|-------------12--------------|
D|------------------------------------12-|-14--------------------------|
A|---------------------------------------|-----------------------------|
E|---------------------------------------|-----------------------------|
                                                   s
e|---------------------------------------------|-12/14p12--------------|
B|---13--12h13p12------------------------------|----------12-----------|
G|----------------14-12--14br(16)14p12~------s-|-----------------------|
D|--------------------------------------14p12\-|-----------------------|
A|---------------------------------------------|-----------------------|
E|---------------------------------------------|-----------------------|

e|------14-15-17--15-14-15-14-------20b(22)-20b(22)---20--19--15-------|
B|---17-----------------------15---------------------------------------|
G|-------------------------------14------------------------------------|
D|---------------------------------------------------------------------|
A|---------------------------------------------------------------------|
E|---------------------------------------------------------------------|

e|---15--17--19--20--19--17--|
B|---------------------------|
G|---------------------------|
D|---------------------------|
A|---------------------------|
E|---------------------------|

e|--15b(17)--15b(17)-|-15p12----12------------------------------------|
B|-------------------|-------15----15b(17)----------------------------|
G|-------------------|------------------------------------------------|
D|-------------------|------------------------------------------------|
A|-------------------|------------------------------------------------|
E|-------------------|------------------------------------------------|


© Авторские права на тексты, песни, видео и другую представленную информацию принадлежат правообладателям. Аккорды, табы, gtp и тексты песен взяты из открытых источников.
Возрастная категория сайта: 18+
Тексты некоторых песен могут содержать нецензурные выражения, брань.
© 2021 guitar-chords.ru