Gtr.1
e|-------------------------------|--------------------------------|
B|-------------------------------|--------------------------------|
G|-------------------------------|--------------------------------|
D|-----7--5--4--5--4--5--4tr(5)--|-----7--5--4--5--4--5-----------|
A|--0----------------------------|--0--------------------3~-------|
E|-------------------------------|--------------------------------|
  Harmony 1
  Gtr.1
e|------------------------------|
B|------------------------------|
G|--------------------5~~-------|
D|-----7--5--4--5--4------------|
A|--0---------------------------|
E|------------------------------|
 |                              | } 3x
 |Gtr.2                         |
e|------------------------------|
B|------------------------------|
G|--------------------9~~-------|
D|----10--9--7--9--7------------|
A|--0---------------------------|
E|------------------------------|
  Gtr.1          Fill 1               Gtr.2          Fill 1
e|-------------|-----------------|  e|-------------|-----------------|
B|-------------|-----------------|  B|-------------|-----------------|
G|-------------|----------5--7---|  G|-------------|----------5--7---|
D|-----7--5--4-|-5p4------5--7---|  D|----10--9--7-|-5p4------5--7---|
A|--0----------|------7---3--5---|  A|--0----------|------7---3--5---|
E|-------------|-----------------|  E|-------------|-----------------|
  Gtr.1&2 Main Riff
e|--------------------------------------|
B|--------------------------------------|
G|-----7---5---4---5---4---5--4tr(5)---*|
D|-----7---5---4---5---4---------------*|
A|--0-----------------------------------|
E|--------------------------------------|

   Chorus
e|---------------------------------------------------|
B|---------------------------------------------------|
G|-------5-------5-------5-------5/------------------|
D|-------5-------5-------5-------5/( let ring )------|
A|--3-3--3--3-3--3--3-3--3--3-3--3/------------------|
E|---------------------------------------------------|
 Fill 1
 Chorus
 Fill 1
 Chorus
  Fill 2
e|-------------------------|-------------------------|
B|-------------------------|-------------------------|
G|-------------------------|-------------------------|
D|-------------------------|-------------------------|
A|--0--0--5--3--0--3--3--5-|-0--0--5--3--0--3--3--5--|
E|-------------------------|-------------------------|

e|-------------------------|
B|-------------------------|
G|------5--7----10--9------|
D|------5--7----10--9------|
A|------3--5-----8--7------|
E|-------------------------|
 Harmony Section
e|--------------------------------------------------------------|
B|--------------------------------------------------------------|
G|--------------------------------------------------------------|
D|--------------------------------------------------------------|
A|--------------------------------------------------------------|
E|--------------------------------------------------------------|
  Outro
e|-------------------------------------------|
B|-------------------------------------------|
G|-------------------------------------------|
D|--7--5---------------------------------7---|
A|--------7--5------------2-----3--2-----7---|
E|--------------8--5---3-----3--------3--5---|

© Авторские права на тексты, песни, видео и другую представленную информацию принадлежат правообладателям. Аккорды, табы, gtp и тексты песен взяты из открытых источников.
Возрастная категория сайта: 18+
Тексты некоторых песен могут содержать нецензурные выражения, брань.
© 2021 guitar-chords.ru