Sex Machine

INTRO:        
E--11--11--11--11--11--11--11--
B--11--11--11--11--11--11--11--
G------------------------------
D------------------------------
A------------------------------
E------------------------------

The rest of the song is basically in two parts... The normal verse and the bridge.

NORMAL VERSE - (PART ONE: This is repeated about 30 times, so listen to the album for time changes)
E--6----6----8----6--
B--6----6----6----6--
G--------------------
D--------------------
A--------------------
E--------------------

BRIDGE - (This is also repeated a lot, so listen to the album for time changes)
E--13----11--9--10--11--
B--13----11--9--10--11--
G-----------------------
D-----------------------
A-----------------------
E-----------------------

Now, they go back into the normal verse, but first they play this intro to the regular verse:

BACK INTO REGULAR VERSE (Not sure on this part, it doesn't sound right so, someone please help me!)
E--6--6--6--6--6--6--6--
B--6--6--6--6--6--6--6--
G-----------------------
D-----------------------
A-----------------------
E-----------------------

Back to regular verse now, but first chord played only once:

REGULAR VERSE - (PART TWO: Check album for time changes)
E--6----8----6--
B--6----6----6--
G---------------
D---------------
A---------------
E---------------


© Авторские права на тексты, песни, видео и другую представленную информацию принадлежат правообладателям. Аккорды, табы, gtp и тексты песен взяты из открытых источников.
Возрастная категория сайта: 18+
Тексты некоторых песен могут содержать нецензурные выражения, брань.
© 2021 guitar-chords.ru