#табулатура

    
Soul Man

-----7------|-----5---5----|------10----10----10|-------12----12/15|----------
------------|--------------|--------------------|------------------|----------
-5/7-------7|-75---5-----5|-5/10----10----10---|-10/12----12------|----------
------------|--------------|--------------------|------------------|----------
------------|--------------|--------------------|------------------|----------
------------|--------------|--------------------|------------------|----------
                 verse riff

------------------------------|-----------------------------------------------
-12-12-1212-12--12--12--10--8-|-----------------------------------------------
-12-12-1212-12--12--12--9---9-|-----------------------------------------------
------------------------------|-----------------------------------------------
------------------------------|-----------------------------------------------
------------------------------|-----------------------------------------------
                 key change

-----8------|-----6---6----|------11----11----11|-------13----13/16|----------
------------|--------------|--------------------|------------------|----------
-6/8------8-|-86---6-----6|-6/11----11----11---|-11/13----13------|----------
------------|--------------|--------------------|------------------|----------
------------|--------------|--------------------|------------------|----------
------------|--------------|--------------------|------------------|----------

------------------------------|-----------------------------------------------
-13-13-1313-13--13--13--11--9-|-----------------------------------------------
-13-13-1313-13--13--13--10--10|-----------------------------------------------
------------------------------|-----------------------------------------------
------------------------------|-----------------------------------------------
------------------------------|-----------------------------------------------

© Авторские права на тексты, песни, видео и другую представленную информацию принадлежат правообладателям. Аккорды, табы, gtp и тексты песен взяты из открытых источников.
Возрастная категория сайта: 18+
Тексты некоторых песен могут содержать нецензурные выражения, брань.
© 2021 guitar-chords.ru