Hey Joe

/-Slide
^ hammer on, pull off
В табах только вступление, 2 куплета(как пример)
и концовка темы, остальные куплеты играются
аналогично первым 2-м.
Intro:
                          E 
1|----0-----0------------|----------------------
2|--3\5---5\3----0-------|---0------------------
3|-------------4\2-^0----|---1------------------
4|---------------------2-|---2----------5---4---
5|-----------------------|---2---4/5--0-5---4---
6|-----------------------|-0---0----------0-----
                            Verse:
   E                          C         G 
1|--------------------------|-----------------------
2|----0---------------------|-----1-1-1-----0--0-0--
3|----1---------------------|-----0-0-0-----0--0-0--
4|----2---------0------0----|-----2-2-2-----0--0-0--
5|----2----0-^2---0-^2----0-|-3-3-------------------
6|-0----0-------------------|-----------3-3---------
   D           A              E 
1|------2--2-2--------------|-----------------------
2|------3--3-3--------------|----0------------------
3|------2--2-2-2------------|----1----------------0-
4|-0--0--------2----------0-|----2----------0-----0-
5|-------------0--0-0-3/4---|----2----0-^2-----2----
6|--------------------------|-0-----0---------------
   E                          C         G 
1|--------------------------|-----------------------
2|----0---------------------|-----1-1-1-----0--0-0--
3|----1---------------------|-----0-0-0-----0--0-0--
4|----2---------0------0----|-----2-2-2-----0--0-0--
5|----2----0-^2---0-^2----0-|-3-3-------------------
6|-0----0-------------------|-----------3-3---------
   D           A              E 
1|------2--2-2--------------|-----------------------
2|------3--3-3--------------|-----------------------
3|------2--2-2-2------------|----1----------------0-
4|-0--0--------2----------0-|----2----------0-----0-
5|-------------0--0-0-3/4---|----2----0-^2-----2----
6|--------------------------|-0-----0---------------
   E                          C         G 
1|--------------------------|-----------------------
2|----0---------------------|-----1-1-1-----0--0-0--
3|----1---------------------|-----0-0-0-----0--0-0--
4|----2---------0------0----|-----2-2-2-----0--0-0--
5|----2----0-^2---0-^2----0-|-3-3-------------------
6|-0----0-------------------|-----------3-3---------
   D           A              E 
1|------2--2-2--------------|-----------------------
2|------3--3-3--------------|-----------------------
3|------2--2-2-2------------|----1----------------0-
4|-0--0--------2----------0-|----2----------0-----0-
5|-------------0--0-0-3/4---|----2----0-^2-----2----
6|--------------------------|-0-----0---------------
   E                          C         G 
1|--------------------------|-----------------------
2|----0---------------------|-----1-1-1-----0--0-0--
3|----1---------------------|-----0-0-0-----0--0-0--
4|----2---------0------0----|-----2-2-2-----0--0-0--
5|----2----0-^2---0-^2----0-|-3-3-------------------
6|-0----0-------------------|-----------3-3---------
   D           A              E 
1|------2--2-2--------------|-----------------------
2|------3--3-3--------------|-----------------------
3|------2--2-2-2------------|----1----------------0-
4|-0--0--------2----------0-|----2----------0-----0-
5|-------------0--0-0-3/4---|----2----0-^2-----2----
6|--------------------------|-0-----0---------------
   E                          C         G 
1|--------------------------|-----------------------
2|----0---------------------|-----1-1-1-----0--0-0--
3|----1---------------------|-----0-0-0-----0--0-0--
4|----2---------0------0----|-----2-2-2-----0--0-0--
5|----2----0-^2---0-^2----0-|-3-3-------------------
6|-0----0-------------------|-----------3-3---------
   D             A             E 
1|---------------------------|----------------------
2|---------------------------|---0------------------
3|-2-2-2---------2-----------|---1---------------0--
4|-0-0-0--1/2--4-2---------0-|---2---------0-----0--
5|---------------0-0-0-3/4---|---2----0-^2----2-----
6|---------------------------|-0----0---------------
   E                          C         G 
1|--------------------------|-----------------------
2|----0---------------------|-----1-1-1-----0--0-0--
3|----1---------------------|-----0-0-0-----0--0-0--
4|----2---------0------0----|-----2-2-2-----0--0-0--
5|----2----0-^2---0-^2----0-|-3-3-------------------
6|-0----0-------------------|-----------3-3---------
   D             A             E 
1|---------------------------|----------------------
2|---------------------------|---0------------------
3|-2-2-2---------2-----------|---1---------------0--
4|-0-0-0--1/2--4-2---------0-|---2---------0-----0--
5|---------------0-0-0-3/4---|---2----0-^2----2-----
6|---------------------------|-0----0---------------
   E                          C         G 
1|--------------------------|-----------------------
2|----0---------------------|-----1-1-1-----0--0-0--
3|----1---------------------|-----0-0-0-----0--0-0--
4|----2---------0------0----|-----2-2-2-----0--0-0--
5|----2----0-^2---0-^2----0-|-3-3-------------------
6|-0----0-------------------|-----------3-3---------
   D             A             E 
1|---------------------------|----------------------
2|---------------------------|---0------------------
3|-2-2-2---------2-----------|---1---------------0--
4|-0-0-0--1/2--4-2---------0-|---2---------0-----0--
5|---------------0-0-0-3/4---|---2----0-^2----2-----
6|---------------------------|-0----0---------------
   E                          C         G 
1|--------------------------|-----------------------
2|----0---------------------|-----1-1-1-----0--0-0--
3|----1---------------------|-----0-0-0-----0--0-0--
4|----2---------0------0----|-----2-2-2-----0--0-0--
5|----2----0-^2---0-^2----0-|-3-3-------------------
6|-0----0-------------------|-----------3-3---------
   D             A             E 
1|---------------------------|----------------------
2|---------------------------|---0------------------
3|-2-2-2---------2-----------|---1---------------0--
4|-0-0-0--1/2--4-2---------0-|---2---------0-----0--
5|---------------0-0-0-3/4---|---2----0-^2----2-----
6|---------------------------|-0----0---------------
   E                          C         G 
1|--------------------------|----------------------------
2|----0---------------------|-----1-1-1------------------
3|----1---------------------|-----0-0-0------------------
4|----2---------0------0----|-----2-2-2----0-------0-----
5|----2----0-^2---0-^2----0-|-3-3-------------0-^2---3/4-
6|-0----0-------------------|-----------3----------------
   D           A              E 
1|------2--2-2--------------|-----------------------
2|------3--3-3--------------|----0------------------
3|------2--2-2-2------------|----1----------------0-
4|-0--0--------2----------0-|----2----------0-----0-
5|-------------0--0-0-3/4---|----2----0-^2-----2----
6|--------------------------|-0-----0---------------
   E                          C         G 
1|--------------------------|------------------3-3-------
2|----0---------------------|-----1-1-1--------3-3-x-x---
3|----1---------------------|-----0-0-0----4-4-4-4-x-x---
4|----2---------0------0----|-----2-2-2----5-5-5-5-x-x---
5|----2----0-^2---0-^2----0-|-3-3-------5--5-5-----------
6|-0----0-------------------|-----------3----------------
   D                  A       E 
1|--------------------------|------------------------
2|------------------------2-|------------------------
3|-----7--7^7--7----------2-|---1---------------0----
4|-----7--7^9--7-7--7-----2-|---2---------0-----0----
5|-5/9-----------9----0-0---|---2----0-^2----2-------
6|------------------------3^|-0---0------------------
                         Bend
  E                           C          G 
1|--------------------------|-------------------------
2|----0---------------------|-------------------------
3|----1---------------------|-------------------------
4|----2---------0------0----|-------------------------
5|----2----0-^2---0-^2----0-|-2/3----------2-3-4------
6|-0----0-------------------|-----0-1-2-3-------------
                              E#79 
1|--------------------------|-------------------------
2|--------------------------|-----8--8-8---8-xx-8-8x8-
3|--------------------------|-----7--7-7---7-xx-7-7x7-
4|--------------------------|-----6--6-6---6-xx-6-6x6-
5|-5---------3/4--5-6-------|-----7-------------------
6|---2-3-4-5----------------|-0-0--------0------------
   E                          C          G 
1|--------------------------|-------------------------
2|-----------7-----7--------|-----5--5-5-------3-3-3-3
3|-----9-7---7-7---7--------|-----5--5-5-------4-4-4-4
4|-----9-7^9---7^9---9/-----|-----5--5-5---5-5-5-5-5-5
5|-----7--------------------|-3-3----------5-5--------
6|-0-0----------------------|------------3------------
   D          A               E 
1|--------------------------|--------0----0-----------
2|-----7--7-7----5-5--------|---0--3/5--5/3---0-------
3|-----7--7-7----6-6--------|---1-----------4/2^0-----
4|-----7--7-7----7-7--------|---2-----------------2^0-
5|-5-5--------------------5/|---2---------------------
6|------------5------5^7----|-0-----------------------

1|--------------------------
2|-----0--------------------
3|-----1--------------------
4|-----2--------------------
5|-----2--------------------
6|--0-----------------------

C    G   D    A                        E 
Hey Joe,uh, where you goin' with that gun in your hand?
C    G   D       A                        E 
Hey Joe,I said,where you goin' with that gun in your hand.Alright
C                   G              D            A                              E 
I'm goin' down to shoot my old lady,you know,I caught her messin' round with
another man.Yeah!
I'm goin' down to shoot my old lady,you know,I caught her messin' round with
another man.
E 
Huh! And that ain'too cool.
C    G   D   A                  E 
Hey Joe, I heard you shot your woman down, you shot her down,now,
C        G  D   A                      E 
Uh, hey Joe,I heard you shot your old lady down,you shot her down in the
ground
C            G              D             A 
Yeah! Yes I did, I shot her, you know I caught her messin' round, messin' round
town.
C           G             D             A                             E 
Uh, Yes I did, I shot her, you know I caught my old lady messin' round town
E 
And I gave her the gun, I shot her!
C    G           D   A                  E 
Hey Joe, said now, where you gonna run to now, where you gonna to?
? 
Hey Joe,I said where you gonna run to now,where you,where you gonna run to?
            C     G         D     A           E 
Well dig it! I'm goin' way south,way down to Mexico way! Al-right!
C              G        D  A               E 
I'm goin' way down south,way down where I can be free! Ain't no one gonna find
me babe!
C         G           D            A                E 
Ain't no hang man gonna, he ain't put a rope around me! You better believe it
right now! I gotta go now
C        G     D             A          E 
Hey,hey,hey Joe, you better run on down! Goodbye everybody,Ow!
C    G                  D    A      E 
Hey, hey Joe, what'd I say, run on down!


© Авторские права на тексты, песни, видео и другую представленную информацию принадлежат правообладателям. Аккорды, табы, gtp и тексты песен взяты из открытых источников.
Возрастная категория сайта: 18+
Тексты некоторых песен могут содержать нецензурные выражения, брань.
© 2021 guitar-chords.ru