#табулатура

    
Midnight

Here is the main and break riff to "Midnight." Heavy on the distortion
for this one. I pity the neighboors.
Main riff     The "^" is a hammer-on
e-------------|--------------------------|----------0-0-0-
B-------------|-------8--8-8-8-xx--------|------3/5-5-0-0-
G-------------|-------7--7-7-7-xx--------|------4/6---6/4- ect..
D-------------|--------------------------|----------------
A-----^---5---|-------------------^---5--|----------------
E----5-7------|--0-0-------------5-7-----|--0-0-----------
The MR progresses to:
e-----------|------------------------------|-----------------------------|
B-----------|-------10--10-10--xx----------|------10--10-10-xx-----------|
G-----------|--------9---9--9--xx----------|-------9---9--9-xx-----------|
D-----------|------------------------------|-----------------------------|
A-----^--7--|---9-9------------------^---7-|--9-9-----------------^---10-|
E----7-9----|-----------------------7-9----|--------------------10-12----|

e---------8--8-8-x--------|-------8--8-8-x--------|
B---------8--8-8-x--------|-------8--8-8-x--------|
G-------------------------|-----------------------|back to MR
D--------------------^--5-|-----------------------|
A-------------------5-7---|------------------^--5-|
E---5-5-------------------|--5-5------------5-7---|
Break lick
e-----------------------|----------------------------------|
B-----------------------|----------------------------------|
G-----------------------|-------------------7--0------7\5--|
D-------------2-2-------|--------5-------7--7--0-----------|
A---2-2-------0-0--3-4--|--5-5-5----5----5--5-----7/9-9\7--|
E---0-0--3-4------------|--3-3-3----3-0--------------------|
I have no idea how this song fits together (too long!)

© Авторские права на тексты, песни, видео и другую представленную информацию принадлежат правообладателям. Аккорды, табы, gtp и тексты песен взяты из открытых источников.
Возрастная категория сайта: 18+
Тексты некоторых песен могут содержать нецензурные выражения, брань.
© 2021 guitar-chords.ru