Spanish Castle Magic

This is probably not quite right and I'm not too sure about the chord
names either. However, it approximates how I learned the basic parts
of this song years ago. Hope this helps.
Notation:
--7~-----  Vibrato
--9/-----  Slide up
--17\----  Slide down
--2h4----  Hammer-on
--6p4----  Pull-off
--6b7----  play fret 6, bend string to reach pitch at fret 7
--6b7r6--  play fret 6, bend string to reach pitch at fret 7, then
           release to reach pitch at fret 6
Intro:
e ------|-----------------------------------|
B ------|-----------------------------------|
G ------|--9-9-----9-9-----9-9-----9-0------|
D --11--|--9-9-11--9-9-11--9-9-11--9---11\--|
A --11--|------11------11------11------11\--|
E ------|-----------------------------------|
           *       *       *       *
    C#m7                           C#m7 
e -----------------------0------|-----------------------0------|
B -----------------------0------|-----------------------0------|
G -----------------------4------|--2--------------------4------|
D --2---------------------------|-------------2----------------|
A ----2----4-2--4---4--4------|---------4----4---4~--------|
E ------0-----------------------|----0-0-----------------------|
    *      *      *      *         *      *      *      *
    C#m7                           C#m7 
e -----------------------0------|-----------------------0------|
B -----------------------0------|-----------------------0------|
G -----------------------4------|-----------------------4------|
D --2----------2----------------|--2---------------------------|
A ----2----4----4p2-4--4------|----2----4-2--4---4---------|
E ------0-----------------------|------0-----------------------|
    *      *      *      *         *      *      *      *
Verse:
    B5/F#                          Bb5/F         Asus4 
e ------------------------------|------------------------------|
B ------------------------------|------------------------------|
G --4-4-4--4--------------------|--3-3-3--3--------------------|
D --4-4-4--4--------------------|--3-3-3--3------7-7-7--7------|
A --2-2-2--2--------------------|--1-1-1--1------5-5-5--5------|
E --2-2-2--2--------------------|--1-1-1--1------5-5-5--5------|
    *      *      *      *         *      *      *      *
    G#5                            C#5/G# 
e ------------------------------|------------------------------|
B ------------------------------|------------------------------|
G ------------------------------|--6-6-6--6--------------------|
D --6-6-6--6--------------------|--6-6-6--6--------------------|
A --6-6-6--6--------------------|--4-4-4--4--------------------|
E --4-4-4--4--------------------|--4-4-4--4--------------------|
    *      *      *      *         *      *      *      *
    B5/F#                          Bb5/F         Asus4 
e ------------------------------|------------------------------|
B ------------------------------|------------------------------|
G --4-4-4--4--------------------|--3-3-3--3--------------------|
D --4-4-4--4--------------------|--3-3-3--3------7-7-7--7------|
A --2-2-2--2--------------------|--1-1-1--1------5-5-5--5------|
E --2-2-2--2--------------------|--1-1-1--1------5-5-5--5------|
    *      *      *      *         *      *      *      *
    G#5                            C#5/G# 
e ------------------------------|------------------------------|
B ------------------------------|------------------------------|
G ------------------------------|--6-6-6--6--------------------|
D ------------------------------|--6-6-6--6--------------------|
A --6-6-4-----------------------|--4-4-4--4--------------------|
E --4-4-5--6--------------------|--4-4-4--4----------------17--|
    *      *      *      *         *      *      *      *
Chorus:
    A5            F#m7             A5            F#m7 
e -----------------------0------|-----------------------0------|
B --5--------------------0------|-----------------------0------|
G --2----------2----------------|--2----------2----------------|
D --2------4----4---4---------|----2----4----4---4---------|
A --0---------------------------|------0-----------------------|
E ------------------------------|------------------------------|
    *      *      *      *         *      *      *      *
    C#m7                           C#m7 
e ------------------------------|------------------------------|
B ------------------------------|---------------------------4--|
G ------------------------------|---------------------------4--|
D --2----------2------------2---|--2----------2---------6------|
A ----2----4----4---4--2h4-4--|----2----4----4---4--4------|
E ------0-----------------------|------0-----------------------|
    *      *      *      *         *      *      *      *
    G#                             E 
e ------------------------------|------------------------------------------|
B --6b7~~~r6-6-4--6--4------4---|--11b12r11b12r11b12r11b12r11-9b-----------|
G --6b7~~~r6-6-4--6--4------4---|--11b12r11b12r11b12r11b12r11-9b-----------|
D --6b7~~~r6------6--4---6------|---------------------------------11 9-----|
A ------------------------------|--------------------------------------10--|
E ------------------------------|------------------------------------------|
    *      *      *      *         *       *           *          *
    C#m7                           C#m7 
e -----------------------0------|-----------------------0------|
B -----------------------0------|-----------------------0------|
G -----------------------4------|-----------------------4------|
D --2----------2----------------|--2----------2----------------|
A ----2----4----4---4---------|---------4----4---4---------|
E ------0-----------------------|----0-0-----------------------|
    *      *      *      *         *      *      *      *
Thanks to the original poster.

© Авторские права на тексты, песни, видео и другую представленную информацию принадлежат правообладателям. Аккорды, табы, gtp и тексты песен взяты из открытых источников.
Возрастная категория сайта: 18+
Тексты некоторых песен могут содержать нецензурные выражения, брань.
© 2021 guitar-chords.ru