#табулатура

    "Are You Experienced"
Stone Free

I've been looking for this tab for along time and no one
posting anything so I decided to tab it out myself
This song is in E, in standard tuning
(Hendrix liked to tune down 1/2 step, but not in this case).
Tab hints
h- Hammer On
p-pull off
b-bend
v-vibrato with wammy bar
^-harmonic
------------------------------|-----------------------------------------------
------------------------------|-----------------------------------------------
------------------------------|-----------------------------------------------
------12^v--------------------|-----------------------------5-----------------
------------------------------|--------5----5---7---5---7------7--5---7--5--7-
--12^-------12v--12v--12v--12/|--0--0----7------------------------------------

----------------------------------------|-------------------------------------
-8-8------------------------------------|-8-8---------------------------------
-7-7------------------------------------|-7-7---------------------------------
-6-6---------------------5--------------|-6-6---------------5-----------------
-7-7----5----5---7--5--7---7--5--7--5--7|-7-7-5---5-7--5--7---7--5--7--5--7---
----------7-----------------------------|-------7-----------------------------

----------------------------------------|-------------------------------------
-8-8------------------------------------|-8-8---------------------------------
-7-7------------------------------------|-7-7---------------------------------
-6-6---------------------5--------------|-6-6---------------5-----------------
-7-7----5----5---7--5--7---7--5--7--5--7|-7-7-5---5-7--5--7---7--5--7--5--7---
----------7-----------------------------|-------7-----------------------------

----------------------------------------|-------------------------------------
-8-8------------------------------------|-8-8---------------------------------
-7-7------------------------------------|-6-6-----------------5--7--7b 7br 5--
-6-6---------------------5--------------|-7-7--5-----5--7-7-7-----------------
-7-7----5----5---7--5--7---7--5--7--5--7|---------7---------------------------
----------7-----------------------------|-------------------------------------

----------------------------------------|-------------------------------------
-8-8------------------------------------|-8-8---------------------------------
-7-7------------------------------------|-7-7---------------------------------
-6-6---------------------5--------------|-6-6---------------5-----------------
-7-7----5----5---7--5--7---7--5--7--5--7|-7-7-5---5-7--5--7---7--5--7--5--7---
----------7-----------------------------|-------7-----------------------------

------------------|--------------------|--------------------|-8-8-8-8-8-8-8-8-
------------------|--------------------|--------------------|-8-8-8-8-8-8-8-8-
---------7-5-7b-5-|---------7--5--7b-5-|------- 7--5--7b--5-|-6-6-6-6-6-6-6-6-
-7--X-X--7-5------|-7--x-x--7--5-------|-7--X-X-7--5--------|-7-7-7-7-7-7-7-7-
-7--X-X-----------|-7--x-x-------------|-7--X-X-------------|----------------
-5--X-X-----------|-5--x-x-------------|-5--X-X-------------|-----------------

------------------|------------------------------------------------------------
------------------|------------------------------------------------------------
-----5-7-7b-7br-5-|--7-7-----------------7-7-----------------------------------
-7-7--------------|--7-7-----------------7-7-----------------------------------
------------------|--5-5--3--5--3--5--3--5-5--3--5--3--5--3--------------------
------------------|------------------------------------------------------------

-----------------------------------------------------|--------------------------
-----------------------------------------------------|--------------------------
----7-7----------------------------------------------|-7-7----------------------
----7-7---------------------10--------------10-------|-7-7----------------------
----5-5--3--5--3--5--3--/12-----12p10----/12---12-p10|-5-5--3--5--3--5--3-------
-----------------------------------------------------|--------------------------

--------------------|-------10-8--- 7---7-5- 7-5--7-5---------------------------
--------------------|--------8-8----7---5-5--5-5--5-5---------------------------
--7-7---------------|--5-5---9-9----5---6-6--6-6--6-6---------------------------
--7-7---------------|--5-5------------------------------------------------------
--5-5--3--5--3--5--3|--3-3------------------------------------------------------
--------------------|-----------------------------------------------------------

---------10--8------------------------------------------------------------------
----------8--8------------------------------------------------------------------
---5-5----9--9------------------------------------------------------------------
---5-5----------------7---------------------------------------------------------
---3-3----------------7---------------------------------------------------------
----------------------5---------------------------------------------------------
Repeat
outro
----------------------------------------------------
----------------------------------------------------
-10-------------------------------------------------
-10-------------------------------------------------
--9----7-9---7-9---7-9------------------------------
-----9-----9-----9----------------------------------

© Авторские права на тексты, песни, видео и другую представленную информацию принадлежат правообладателям. Аккорды, табы, gtp и тексты песен взяты из открытых источников.
Возрастная категория сайта: 18+
Тексты некоторых песен могут содержать нецензурные выражения, брань.
© 2021 guitar-chords.ru