(1967)
The Burning of the Midnight Lamp

This is just the intro to the song off of Electric Ladyland.
It's played with a wah-wah and a harpsichord.
Don't pay attention to the bars and I didn't make an attempt of
timing so you'll have to listen to the record to get it,
but it's pretty easy anyway. Enjoy:
|---------------------------------------------------------------------- |
|-----------------------------------------------------------------------|
|-----------------------------------------------------------------------|
|-------------------3------2------------------------------------------|
|-----------3----------------------3-------5-----5-----3-----3----|
|-----3----------------------------------------------------------------|

|-----------------------------------------------------------------------------------------------------------|
|-----------------------------------------------------------------------------------------------------------|
|-----------------------------------------------------------------------------------------------------------|
|----------3------2---------------------2-------------------------3-----2------------------------------|
|-------------------------3------5--------------3----------1-------------------3---5---5----3s5---|
|---1---------------------------------------------------1-------------------------------------------------|

|----------------------------------------------|
|----------------------------------------------|
|----------------------------------------------|
|----2-----2----3----2----------------2---|     } x2
|-------------------------------5-------------|
|----------------------------------------------|
Well, that's it. I think somebody posted the chords,
so the whole song should be in here.


© Авторские права на тексты, песни, видео и другую представленную информацию принадлежат правообладателям. Аккорды, табы, gtp и тексты песен взяты из открытых источников.
Возрастная категория сайта: 18+
Тексты некоторых песен могут содержать нецензурные выражения, брань.
© 2021 guitar-chords.ru