#табулатура

    "Animalized"
Heaven's On Fire

Regular tuning

intro/verse:    -5-5-5-----5-5-5-----------------
-5-5-5-----5-5-5-----5-5-----------
-2-2-2-----2-2-2--2--4-4--2----------
-2-2-2-----2-2-2--2--2-2--2----------
-0-0-0-----0-0-0--0-------0--------
---------------------------

---------------------------
------3-(10X)--------------------
-2-2--2--------2-----2-2---------
-2-2--0--------2-----2-2-----2---
-0-0-----------0--3b-0-0-3b--0--
---------------------------

---------------------------
-------------------3-x-3-----3-x-3-3----
-2-----------------2-x-2-----2-x-2-2-----
-2-----2-x-2-2----0-x-0-----0-x-0-0----2-
-0-3b--0-x-0-0-3b--------3b---------3b-0-
---------------------------

-3--------------------------
-3-----3---------------------
-0-----2---------------------
-0-----0---------------------
-2-0-2---3p2-0-3p2-0-3p2-0-3p2-0-0-
-3--------------------------

solo:        
-10---------12-10---10---------12----
---12-----13---12-----12-----13------
-----12-14-----12-12----12-14----------
---------------------------
---------------------------
---------------------------

solo rhythm:    ---------------------------
---------------------------
----------------------------
-2-2-------------------------
-0-0-------------------------
---------------------------

© Авторские права на тексты, песни, видео и другую представленную информацию принадлежат правообладателям. Аккорды, табы, gtp и тексты песен взяты из открытых источников.
Возрастная категория сайта: 18+
Тексты некоторых песен могут содержать нецензурные выражения, брань.
© 2021 guitar-chords.ru