#табулатура

    off the album, Creatures of the Night
I Love It Loud

Verse:        
---------------------------------------------------------3----------
---------------------------------------------------------3--3---3-2-
-4-4---4-4-4------4-4-4-4-----4-----4--4--4-4--4---4---0--2---2-2--
-4-4-4-4-4-4-4-4--4-4-4-4--4-4--4--4--4--4-4--4-4-4-4----0---0-0-
-2---2---0----0-0--2-2-2-2--0----0-----2----2----0-0-0-------------
---------------------------------------------------------------------

Chorus:        
-------------------------------------------------------------------------
-------------9---x--------------------9-------------------------x-------
-4----4-2----9--x------4-4-4-4---2---9----------4---4-2---9---x-2---------
-4----4-2----9--x--2---4-4-4-4-4-2---9----------4---4-2---9---x-2----------
-2----2-0----7-----0---2-2-2-2-2-0---7----------2---4-0---7-----0--------
-------------0------------------------0---3---5-------------0--------------

---------------3-----------------------------------------
---------------3-----x--3----------------------------------
-4-4-4-4-4-2--0-----x--2---9--------------------------------------
-4-4-4-4-4-2--0-----x--0---9--------------------------------------
-2-2-2-2-2-0--x------------7------------------------------------
---------------3------------0-------3b----------------------

Interlude:    
(                 3X                       )
--------------------------------------------------------
---------------------------------7-----------------------
-2---7-7-/-5--/-7----2----------7-7-/---5--7-------------------------
-2---7-7-/-5--/-7--2-2----------7-7-/---5--7---------------------------
-0---5-5-/-3--/-5--0-0----------5-5-/---3--5--------------------------
--------------------------------------------------------

Solo:        
--------------------------------------------------------
-7-----9----10------9----7-----5----3----dive bar-------
-9b---12b---12bv---11b---9bv---7b---5b-----------------
--------------------------------------------------------
--------------------------------------------------------
--------------------------------------------------------

© Авторские права на тексты, песни, видео и другую представленную информацию принадлежат правообладателям. Аккорды, табы, gtp и тексты песен взяты из открытых источников.
Возрастная категория сайта: 18+
Тексты некоторых песен могут содержать нецензурные выражения, брань.
© 2021 guitar-chords.ru