#табулатура

    Off the album, Love Gun
I Stole Your Love

Tune down 1/2 step

Intro:        
-------------------------
-------------------------
-------------------------
-11----------------------11-
-11--------------------7-11-
--9-9-7-5-7-9-7-5-7-9----9-

verse:        
--------------------
--------------------
-9--11---4----------
-9--11---4--4------- } repeat intro
-7---9---2--4-------
-------------2------

pre chorus:    -------------------------
-------------------------
-7--9---11--------------
-7--9---11--------------
-5--7----9---------------
-------------------------

chorus:        
-------------------------
-------------------------
-------------------------
-11----------------------11-
-11--------------------7-11-
--9-9-7-5-7-9-7-5-7-9----9-

-------------------------
-------------------------
-7--9---11--------------
-7--9---11--------------
-5--7----9---------------
-------------------------

© Авторские права на тексты, песни, видео и другую представленную информацию принадлежат правообладателям. Аккорды, табы, gtp и тексты песен взяты из открытых источников.
Возрастная категория сайта: 18+
Тексты некоторых песен могут содержать нецензурные выражения, брань.
© 2021 guitar-chords.ru