#табулатура

    "Kiss"
Kissin' Time

tune down 1/2 step

intro:        
--------------------------
------------3--------------
-12---5-2--2-----5--------
-12---5-2--0-3---5-5------
-10---3-0----3---3-5------
-------------1------3-------

--------------------------
------------3--------------
-12---5-2--2-----5-------12-
-12---5-2--0-3---5-5-----12-
-10---3-0----3---3-5-----10-
-------------1------3-------

verse 1:    --------------------------
--------------------------
-7-7--7-7--7-7--7-7----5---
-7-7--7-7--7-7--7-7--5-5-5---
-5-5--5-5--5-5--5-5--5-3-5---
----------------------3---3

--------------------------
--------------------------
-5---5---5-------------------
-5-5-5-5-5---------------------
-3-5-3-5-3---------------------
---3---3--------------------

--------------------------
--------------------------
-7-7--7-7--7-7--7-7----5---
-7-7--7-7--7-7--7-7--5-5-5---
-5-5--5-5--5-5--5-5--5-3-5---
----------------------3---3

--------------------------
--------------------------
-5---5---5---5-5--5-5--5-5--5-5-
-5-5-5-5-5---5-5--5-5--5-5--5-5-
-3-5-3-5-3---3-3--3-3--3-3--3-3-
---3---3--------------------

--------------------------
--------------------------
---5---5---5---5--------
-5-5-5-5-5-5-5-5---------
-5-3-5-3-5-3-5-3---------
-3---3---3---3-----------

--------------------------
--------------------------
-7-7--7-7--7-7--7-7--------
-7-7--7-7--7-7--7-7--5-5-5-5--
-5-5--5-5--5-5--5-5--5-5-5-5--
----------------------3-3-3-3

chorus:        
-----------------------------
----------------------------
-5-5--5--5-5--5--------------
-5-5--5--5-5--5--5-5-5-5----
-3-3--3--3-3--3--5-5-5-5-----
------------------3-3-3-3-----

--------------------------
--------------------------
-5-5--5--5-5--5----------------
-5-5--5--5-5--5---7-7-7-7-7-7--
-3-3--3--3-3--3---7-7-7-7-7-7--
-------------------5-5-5-5-5-5-

--------------------------
--------------------------
-7-7-7-7-7-7-------------
-7-7-7-7-7-7-------------
-5-5-5-5-5-5-------------
--------------------------

verse 2:
follow same pattern as verse 1 except add
a slide like the following.
--------------------------
--------------------------
-7-7/10--7-7/10----------
-7-7/10--7-7/10-----------etc..
-5-5/-8--5-5/-8-----------
--------------------------

© Авторские права на тексты, песни, видео и другую представленную информацию принадлежат правообладателям. Аккорды, табы, gtp и тексты песен взяты из открытых источников.
Возрастная категория сайта: 18+
Тексты некоторых песен могут содержать нецензурные выражения, брань.
© 2021 guitar-chords.ru