Tuning: Standard tuning
I love this song it is brilliant. I thought it was brilliant when they played
it at song to play but I have not tabbed the solo. I will when I figure it out.
This is the exact to play at aswell.

Intro/Verse
Riff 1:
e|----------------------------------------------------------------------------|
B|----------------------------------------------------------------------------|
G|----------------------------------------------------------------------------|
D|-4-4-4-4-4-4-4-4-4-4-4-4-4-4------------------------------------------------|
A|-4-4-4-4-4-4-4-4-4-4-4-4-4-4------------------------------------------------|
E|-2-2-0-2-0-2-0-2-2-0-2-0-2-0------------------------------------------------|

After the first verse, (I think it is) play riff 1 with this after it.

e|22020202202020-------------------------------------------------------------|
B|22020202202020-------------------------------------------------------------|
G|---------------------------------------------------------------------------|
D|---------------------------------------------------------------------------|
A|---------------------------------------------------------------------------|
E|---------------------------------------------------------------------------|

Chorus:
Riff 2:
e|---------------------------------------------------------------------------|
B|---------------------------------------------------------------------------|
G|---------------------------------------------------------------------------|
D|-4/9-9-9-9-7-77------------------------------------------------------------|
A|-4/9-9-9-9-7-77------------------------------------------------------------|
E|-2/7-7-7-7-5-55------------------------------------------------------------|

To play the chorus, after playing Riff 2 play Riff 1 again and
then play Riff 2 again.

/  slide up
\  slide down
h  hammer-on
p  pull-off
~  vibrato
+  harmonic
x  Mute note

© Авторские права на тексты, песни, видео и другую представленную информацию принадлежат правообладателям. Аккорды, табы, gtp и тексты песен взяты из открытых источников.
Возрастная категория сайта: 18+
Тексты некоторых песен могут содержать нецензурные выражения, брань.
© 2021 guitar-chords.ru