I didn't find any correct
tab verision of the solo, soo this is how I think i should bee played..

E|------------------------------------------------------------------15b
B|17-17-17-17-17-17-17-17-17-17-17-17-17-17-17-17-17p-15----15-17-17---
G|-------------------------------------------------------16------------
D|---------------------------------------------------------------------
A|---------------------------------------------------------------------
E|---------------------------------------------------------------------

E|15r--15b---15b--15r--------------------------------------------------
B|--------------------17p-15----15-17-15br-15br-15br----------15-------
G|---------------------------16----------------------16-14-16----16-14-
D|---------------------------------------------------------------------
A|---------------------------------------------------------------------
E|---------------------------------------------------------------------

E|---------------------------|
B|---------------------------|
G|16--16-16-x-16-16-x-16-----|
D|----14-14-x-14-14-x-14-----|
A|---------------------------|
E|---------------------------|

b=bend
r=release
br=bend'n'release
p=pull off


© Авторские права на тексты, песни, видео и другую представленную информацию принадлежат правообладателям. Аккорды, табы, gtp и тексты песен взяты из открытых источников.
Возрастная категория сайта: 18+
Тексты некоторых песен могут содержать нецензурные выражения, брань.
© 2021 guitar-chords.ru