intro/verse:    E|-22-0-2-0-2-0-2
B|-22-0-2-0-2-0-2
G|-33-3-3-3-3-3-3 } repeat as many times as neeeded
D|-44-4-4-4-4-4-4
A|-44-4-4-4-4-4-4
E|-22-0-2-0-2-0-2

chorus:        
E|-5555-3333----------
B|-5555-3333----------
G|-6666-4444----------
D|-7777-5555----------
A|-7777-5555----------
E|-5555-3333----------

© Авторские права на тексты, песни, видео и другую представленную информацию принадлежат правообладателям. Аккорды, табы, gtp и тексты песен взяты из открытых источников.
Возрастная категория сайта: 18+
Тексты некоторых песен могут содержать нецензурные выражения, брань.
© 2021 guitar-chords.ru