Seek & Destroy одна из моих самых любимых песен y Mettallica.
Советую, сначала прослушать её несколько раз, прежде чем пытаться
сыграть её самому. Я попытался максимально легко разобрать свой таб.
Итак, по порядку o каждом рифе: Riff 1 - это вступление, играется 8 раз,
в начале и в середине песни, Riff 2 - этот риф играется
очень часто и служит чаще дополнением к основным рифам, Riff 4 -
это основной риф, под него и поётся песня, Riff 5 - играется перед припевом,
Riff 6 - припев, Riff 7 - играется в самом конце (после чего пару раз Riff 2
и всё). Ниже предложены соло и текст этой песни.

E-------------------|---------------|-------------------|----------------|
B-----3-4-3---------|-----------1---|-----3-4-3---------|-----------1---|
G-------------2-3-2-|-------0-----2-|-------------2-3-2-|-------0-----2--|
D-------------------|---3-2---2-----|-------------------|---3-2---2-------|
A-0-0-------0-------|-0-------------|-0-0-------0-------|-0---------------|
E---------------------|---------------|-------------------|---------------|

E-0-------------------|
B---3-0-3-0----------|
G------------3-2-0-2-| Riff 2 (Link)
D---------------------|
A---------------------|
E----------------------|

E-------------------|-------------------|
B-------------------|-------------------|
G---------0-2-0-2-|--------------------|
D---------0-2-0-2-|----------2-0------|    Riff 3 (Pre Verse)
A-------------------|-------------2-1---|
E-0-0-0-0----------|-0-0-0-0----------|

E--------------------|-------------------|
B--------------------|-------------------|
G--------------------|--------------0----|
D--------------------|----------------2--| Riff 4 (Verse)
A--------------------|----------2-1------|
E-0-0-0-0-0-0-0-0-|-0-0-0-0----------|

E-----------------|----------------|
B-1-------1-3-1-|-1-------1-3-1-|
G-0-------0-2-0-|-0-------0-2-0-|
D----------------|-----------------| Riff 5 (Pre Chorus)
A----------------|-----------------|
E---0-0-0-------|---0-0-0--------|

E----------------------------------------------------|
B-3--------------------------------------------------|
G-0---6---5-----------------------------------------|
D-----4---3-----------------------------------------| Riff 6 (Chorus)
A----------------------------------------------------|
E--------------0-0-0-0-0-0-0-0-0-0-0-0-0-0-0-0-|

Riff 7 (Outro)
E----------------|------------------|-----------------|-----------------------|
B----------------|------------------|-----------------|----------------------|
G----------------|------------------|-----------------|--------------------|
D----------0-----|-------0-----2-0-|-----------0-----|-------0-----2---|
A----2-----------|-4-----------0---|-----2-----------|-4-----------0-------|
E0-0-0-0-0-3-0-0-|-2-0-0-3-0-0---3-|-0-0-0-0-0-3-0-0-|-2-0-0-3-0-0-3-|

Solo:
E----7-10-12-|-15-12-7-12
B----|------|---------|-----------
G----|------|---------|-----------

E-15-12-17-12-15-12-10-12-15-12-17-12-|-15-12-10-12-10-12-10-|------|
B-------------------------------------|----------------------|------|
G-------------------------------------|----------------------|------|

E------|-7-7-10-7-5-7-7-5-2-5-2-0-|-------0-----|------|------|-17-6-
B------|--------------------------|-3-0-3---3-0-|------|------|------
G------|--------------------------|-------------|------|------|------

E10-16-15-14-10-|-9-7-3-10-|------|-18-20-20-|-20-18-19-19-21-21-17-1
B---------------|----------|------|----------|-----------------------
G---------------|----------|------|----------|-----------------------

E5-19-16-14-14-17-14----|-16-12-11-14-12-11-9-7-10-7-5-7-10-7-5-2-|-5
B--------------------17-|-----------------------------------------|--
G-----------------------|-----------------------------------------|--

E-2-0---0-2-0-0---|-0-----------|---------------------|---0-0---0----
B-----3---------3-|---3-0-3-----|---------0-------0-0-|-3-----3---3-0
G-----------------|-------------|-------2---2---2-----|--------------
D-----------------|-------------|---0-4-------4-------|--------------
A-----------------|---------0-0-|-2-------------------|--------------
E-----------------|-------------|---------------------|--------------

E-|---0-0-2-5-2-0-----|---0---0-5-7-|----12-12-10-7-5-7----12-12-10-7
B-|-3-------------3-0-|-3---3-------|-15----------------15-----------
G-|-------------------|-------------|--------------------------------

E-7-10-|----12-12-10-7-10----12-12-10-12-|-15-12-10-7-5-7-10-7-5-3-0-
B------|-15---------------15-------------|---------------------------
G------|---------------------------------|---------------------------

E3-|-5-3-0-------------|-------------0---0-3-0-3-|-5-3-5-7-5-7-10-7-1
B--|-------3-0---------|-0---0-3-0-3---3---------|-------------------
G--|-----------2-0-0-2-|---2---------------------|-------------------

E0-12-10-12-|-15-12-10-7-6-7-10-7-5-3-|-0-|
B-----------|-------------------------|---|
G-----------|-------------------------|---|

Lyrics:
Verse 1:    Scanning the scene in the city tonight,
We're looking for you to start up a fight.
There's an evil feeling in our brains,but it's nothing new.
You know it drives us insane.

Pre-Chorus:    Running.  On our way.
Hiding.  You will pay.
Dying 1000 deaths.

Chorus:        
Searching.......   Seek and destroy

Verse 2:    There is no escape and that's for sure.
This is the end we won't take anymore.
Say goodbye to the world you live in
You've always been taking, but now you're giving.

Verse 3:    Our brains are on fire with the feeling to kill
And it wont go away until our dreams are fulfilled,
there is only one thing on our minds.
Don't try running away 'cause youre the one we will find.

© Авторские права на тексты, песни, видео и другую представленную информацию принадлежат правообладателям. Аккорды, табы, gtp и тексты песен взяты из открытых источников.
Возрастная категория сайта: 18+
Тексты некоторых песен могут содержать нецензурные выражения, брань.
© 2021 guitar-chords.ru