Century Child (2002)
Bless The Child

Marco (Bass)

G||------------------|------------------|------------------|------------------|
D||------------------|------------------|------------------|------------------|
A||------------------|------------------|------------------|------------------|
E||------------------|------------------|------------------|------------------|

------------------|------------------|------------------|------------------|
------------------|------------------|------------------|------------------|
------------------|------------------|------------------|------------------|
------------------|------------------|------------------|------------------|

------------------|------------------|------------------|------------------|
------------------|------------------|------------------|------------------|
------------------|------------------|------------------|------------------|
------------------|------------------|------------------|------------------|

------------------|------------------|------------------|------------------|
------------------|------------------|------------------|------------------|
------------------|------------------|------------------|------------------|
------------------|------------------|------------------|------------------|

--------------------|------------------|------------------|------------------|
--------------------|------------------|------------------|------------------|
--------------------|------------------|------------------|------------------|
--0--0--------------|------------------|------------------|------------------|

--------------------|------------------|------------------|------------------|
--------------------|------------------|------------------|------------------|
--------------------|------------------|------------------|------------------|
--0--0--------------|------------------|------------------|------------------|

------------------|------------------|------------------|------------------|
------------------|------------------|------------------|------------------|
------------------|------------------|------------------|------------------|
------------------|------------------|------------------|------------------|

------------------|------------------|------------------|------------------|
------------------|------------------|------------------|------------------|
------------------|------------------|------------------|------------------|
------------------|------------------|------------------|------------------|

------------------|------------------|-----------------------------------|
------------------|------------------|-----------------------------------|
------------------|------------------|-----------------------------------|
------------------|------------------|--0--0--0--0--0--0--0--0--0--0--0--|

-----------------------------------|--------------------------------|
-----------------------------------|--------------------------------|
-----------------------------------|--------------------------------|
--0--0--0--0--0--0--0--0--0--0--0--|--0--0--0-----0-----0--0--0--0--|

--------------------------------|-----------------------------------|
--------------------------------|-----------------------------------|
--------------------------------|-----------------------------------|
--0--0--0-----0-----0--0--0--0--|--0--0--0--0--0--0--0--0--0--0--0--|

-----------------------------------|--------------------------------|
-----------------------------------|--------------------------------|
-----------------------------------|--------------------------------|
--0--0--0--0--0--0--0--0--0--0--0--|--0--0--0-----0-----0--0--0--0--|

--------------------------------|------------------------|
--------------------------------|------------------------|
--------------------------------|------------------------|
--0--0--0-----0-----0--0--0--0--|------------------------|

------------------------|------------------------|------------------------|
------------------------|------------------------|------------------------|
------------------------|------------------------|------------------------|
------------------------|------------------------|------------------------|

------------------------|------------------------|------------------------|
------------------------|------------------------|------------------------|
------------------------|------------------------|------------------------|
------------------------|------------------------|------------------------|

------------------------|------------------|--------------------|
------------------------|------------------|--------------------|
------------------------|------------------|-----------3--------|
------------------------|------------------|--1-----------------|

------------------|------------------|--------------------|--------------------|
------------------|------------------|--------------------|--------------------|
------------------|------------------|--------------------|--------------------|
------------------|------------------|--1------------1----|--3------------3----|

--------------------|--------------------------|------------------|
--------------------|--------------------------|------------------|
--0-----------------|--0--0--0--0--------3-----|------------------|
---------------3----|--------------1-----------|------------------|

-------------------|-------------------|-----------------------|
-------------------|-------------------|-----------------------|
--0----------------|-------------------|--3--------------------|
-------------------|--1----------------|-----------3-----3-----|

------------------|-------------------|----------------0-----|
------------------|-------------------|-------------2-----2--|
------------------|-------------------|--0-------------------|
------------------|--3----------------|----------------------|

-----------------------|------------------------|------------------------|
-----------------------|------------------------|------------------------|
--0--------------3-----|------------------------|------------------------|
-----------1-----------|------------------------|------------------------|

------------------------|------------------------|------------------|
------------------------|------------------------|------------------|
------------------------|------------------------|------------------|
------------------------|------------------------|------------------|

--------------------|------------------|------------------|--------------------|
--------------------|------------------|------------------|--------------------|
-----------3--------|------------------|------------------|--------------------|
--1-----------------|------------------|------------------|--1------------1----|

--------------------|--------------------|--------------------------|
--------------------|--------------------|--------------------------|
--------------------|--0-----------------|--0--0--0--0--------3-----|
--3------------3----|---------------3----|--------------1-----------|

------------------|-------------------|-------------------|
------------------|-------------------|-------------------|
------------------|--0----------------|-------------------|
------------------|-------------------|--1----------------|

-----------------------|------------------|-------------------|
-----------------------|------------------|-------------------|
--3--------------------|------------------|-------------------|
-----------3-----3-----|------------------|--3----------------|

----------------0-----|--2-----0-----------------|------------------|
-------------2-----2--|-----2-----2--0-----------|------------------|
--0-------------------|-----------------0--3-----|------------------|
----------------------|--------------------------|------------------|

-------------------|-------------------|--------------------|
-------------------|-------------------|--------------------|
--0----------------|-------------------|--3-----------------|
-------------------|--1----------------|-----------3--------|

-------------------|-------------------------|--------------------|
-------------------|-------------------------|--------------------|
-------------------|-------------------------|--0-----------------|
--1----------------|--3-----3--3----3--3-----|--------------------|

------------------|------------------|----------------------|
------------------|------------------|----------------------|
------------------|------------------|----------------------|
------------------|------------------|----------------------|

--------------------|-------------------------|--------------------|
--------------------|-------------------------|--------------------|
--------------------|-------------------------|--3-----------------|
--------------------|-------------------------|--------------------|

--------------------|------------------|------------------|--------------------|
--------------------|------------------|------------------|--------------------|
--1------------3----|------------------|------------------|--1------------3----|
--------------------|------------------|------------------|--------------------|

-------------------|-------------------|-------------------------|
-------------------|-------------------|-------------------------|
-------------------|-------------------|--1-----1-----------3----|
----------1--------|------3------------|--------------1----------|

-------------------|-------------------|-------------------------|
----------0--------|-------------------|-------------------------|
-------------------|-------------------|--1-----1-----------3----|
-------------------|------3------------|--------------1----------|

-------------------|----------------------------|-----------------------------|
-------------------|----------------------------|-----------------------------|
----------1--------|--0-------------------------|-----------------------------|
-------------------|--------3-3-3--3--3--3--3-3-|--3-3-3--3--3--3--3-3-3-3-3--|

----------------------------|-----------------------------|
----------------------------|-----------------------------|
----------------------------|-----------------------------|
--3--3--3--3-3-3-3-3--3--3--|--3--3-3-3-3-3--3--3--3--3-3-|

-----------------------------|----------------------------|
-----------------------------|----------------------------|
-----------------------------|----------------------------|
--3-3-3--3--3--3--3-3-3-3-3--|--3--3--3--3-3-3-3-3--3--3--|

-----------------------------|-----------------------------|
-----------------------------|-----------------------------|
-----------------------------|-----------------------------|
--3--3-3-3-3-3--3--3--3--3-3-|--3-3-3--3--3--3--3-3-3-3-3--|

----------------------------|---------------------|--------------------|
----------------------------|---------------------|--------------------|
----------------------------|---------------------|--------------------|
--3--3--3--3-3-3-3-3--3--3--|--3--3-3-------------|----------1--0------|

-----------------------|------------------|--------------------|
-----------------------|------------------|--------------------|
-----------------------|------------------|--------------------|
----------0-0-0--0--0--|------------------|----------1--0------|

-----------------------|--------------------------|----------------------------|
-----------------------|--------------------------|----------------------------|
-----------------------|------0-0-0--0--0--0--0-0-|--0-0-0--0-0-0--0--0--0--0--|
----------0-0-0--0--0--|--------------------------|----------------------------|

---------------------|------------------|------------------|------------------|
---------------------|------------------|------------------|------------------|
---------------------|------------------|------------------|------------------|
--1--0---------------|------------------|------------------|------------------|

------------------|------------------|------------------|------------------|
------------------|------------------|------------------|------------------|
------------------|------------------|------------------|------------------|
------------------|------------------|------------------|------------------|

---------------2------|--7-------------------|------------------------|
------0-----0---------|----------------------|--7-----------7--7------|
----------------------|--------0------7------|--------8---------------|
----------------------|----------------------|------------------------|

-----------0--5--0-------|-------------2------|--7-----------------------|
--5----------------------|------0-------------|--------------------------|
--------3----------------|--------------------|--------------------------|
--------------------3----|--------------------|--------3-----3--3-----3--|

-------------------------|--------------------------|
-------------------------|--------------------------|
-------0--0--0--0--0--0--|--0--0--0--0--0--0--------|
----3--------------------|--------------------1-----|

--------------------------------|----------------------------------------------|
--------------------------------|----------------------------------------------|
--3-----------------------------|----------0--0--0--0--0--0--0--0--0--0--0--0--|
--------------------------------|----------------------------------------------|

---------------------------|--------------------|
---------------------------|--------------------|
--0--0--0--0---------------|------3-------------|
--------------1------------|---------------3----|

------------------------------------------|
------------------------------------------|
------------------------------------------|
------1--1--1--1--1--1--1--1--1--1--1--1--|

--------------------------------------------------|
--------------------------------------------------|
--------------------------------------------------|
--1--1--1--1--3--3--3--3--3--3--3--3--3--3--3--3--|

-----------------------------------0---------|
--------------------0----2----3---------3----|
--------------0--0----0----0----0----0----0--|
--3--3--3--3---------------------------------|

-------------------------------------|--------------------|------------------|
--2----0----3----2----0--------------|--------------------|------------------|
----0----0----0----0----0--3-0-------|--------------------|------------------|
-------------------------------1-----|--0-----------------|------------------|

------------------|-------------------|-------------------|------------------|
------------------|-------------------|-------------------|------------------|
------------------|-------------------|-------------------|------------------|
------------------|----------------4--|---4---------------|------------------|

------------------|-------------------|-------------------------------|
------------------|-------------------|-------------------------------|
------------------|-------------------|-------------------------------|
------------------|----------------4--|---4---0--0--0--0--0--0--0--0--|

-----------------------------------|--------------------------------|
-----------------------------------|--------------------------------|
-----------------------------------|--------------------------------|
--0--0--0--0--0--0--0--0--0--0--0--|--0--0--0--0--0--0-----0-----0--|

--------------------------------|-----------------------------------|
--------------------------------|-----------------------------------|
--------------------------------|-----------------------------------|
--0--0--0--0--0--0-----0-----0--|--0--0--0--0--0--0--0--0--0--0--0--|

-----------------------------------|--------------------------------|
-----------------------------------|--------------------------------|
-----------------------------------|--------------------------------|
--0--0--0--0--0--0--0--0--0--0--0--|--0--0--0--0--0--0-----0-----0--|

-----------------------------------|-----------------------------------|
-----------------------------------|-----------------------------------|
-----------------------------------|-----------------------------------|
--0--0--0--0--0--0-----0-----0--0--|---0--0----0------------0----------|

-------------------------------------|-------------------------------------|
-------------------------------------|-------------------------------------|
-------------------------------------|-------------------------------------|
--0----------0------------0----------|--0----------0------------0----------|

-------------------------------------|-------------------------------------|
-------------------------------------|-------------------------------------|
-------------------------------------|-------------------------------------|
--0----------0------------0----------|--0----------0------------0----------|

-------------------------------------|-------------------------------------|
-------------------------------------|-------------------------------------|
-------------------------------------|-------------------------------------|
--0----------0------------0----------|--0----------0------------0----------|

-------------------------------------|
-------------------------------------|
-------------------------------------|
--0----------0------------0----------|

-----------------------------------------------|
-----------------------------------------------|
-----------------------------------------------|
--0--------0--3--0--0--0--0--0--3--0--0--0--0--|

--------------------------------------------------|
--------------------------------------------------|
--------------------------------------------------|
--0--3--0--0--0--3--0--0--0--0--0--3--0--0--0--0--|

--------------------------------------------------|--------------------------|
--------------------------------------------------|--------------------------|
--------------------------------------------------|--------------------------|
--0--3--0--0--0--3--0--0--0--0--0--3--0--0--0--0--|--0--3--0--0--------------|

---|---|---|---|---|---||
---|---|---|---|---|---||
---|---|---|---|---|---||
---|---|---|---|---|---||


© Авторские права на тексты, песни, видео и другую представленную информацию принадлежат правообладателям. Аккорды, табы, gtp и тексты песен взяты из открытых источников.
Возрастная категория сайта: 18+
Тексты некоторых песен могут содержать нецензурные выражения, брань.
© 2019 guitar-chords.ru