Guitar I

E||--0-3-7-3-0----0-3-7-3-0----|--0-7-5-7---7-5-7---7-5-7---7-5-7-|
B||----------------------------|----------8-------5-------8-------|
G||----------------------------|----------------------------------|
D||----------------------------|----------------------------------|
A||----------------------------|----------------------------------|
E||----------------------------|----------------------------------|

--------------0-3-0--------|----------------------------------|
----------0---------1------|----0---------------------0-------|
------------5--------------|--0---0-------------0-------2-0---|
--------7----------------2-|--------2---2-----2---2---------4-|
-----------------------3---|----------3---0-3-------3---------|
---------------------------|----------------------------------|

-------------------|------------------|--0-3-7-3-0----0-3-7-3-0----|
-------------------|------------------|----------------------------|
-------------------|------------------|----------------------------|
--4----------------|------------------|----------------------------|
--2----------------|------------------|----------------------------|
-------------------|------------------|----------------------------|

--0-10-8-10---10-8-10-------------|-----------------------------|
------------8---------------------|-----------------8-----------|
----------------------9--8--9-----|---------------9---9---------|
----------------------------------|--------7-9-10-------10------|
----------------------------------|---------------------------7-|
----------------------------------|-------------------------8---|

----------------------------------|-------------------|-----------------------|
--------------------------0-------|-------------------|-----------------------|
----4---------------0-------2-0---|-------------------|-----------------------|
--5---5-2---2-----2---2---------4-|--4----------------|--4--------4--2--------|
----------3---0-3-------3---------|--2----------------|--2--------2--0--5--4--|
----------------------------------|-------------------|-----------------3--2--|

--------------------------|---------------------------|
--------------------------|---------------------------|
--------------------------|---------------------------|
--------------------------|---------------------------|
--2----------2------------|--------------2------------|
--0----0--0--0-0-0--0--0--|----0-0-0--0--0-0-0--0--0--|

--------------------------|-----------------------|--------------------------|
--------------------------|-----------------------|--------------------------|
--------------------------|----------2----2----2--|--------------------------|
--2----------2------------|--5----5--0----0----0--|--------------------------|
--0----0--0--0-0-0--0-0-0-|--3----3---------------|--2----------2------------|
--------------------------|-----------------------|--0----0--0--0-0-0--0--0--|

---------------------------|--------------------------|-----------------------|
---------------------------|--------------------------|-----------------------|
---------------------------|--------------------------|----------2----2----2--|
---------------------------|--2----------2------------|--5----5--0----0----0--|
--------------2------------|--0----0--0--0-0-0--0--0--|--3----3---------------|
----0-0-0--0--0-0-0--0--0--|--------------------------|-----------------------|

--------------------------|---------------------------|
--------------------------|---------------------------|
--------------------------|---------------------------|
--------------------------|---------------------------|
--2----------2------------|--------------2------------|
--0----0--0--0-0-0--0--0--|----0-0-0--0--0-0-0--0--0--|

--------------------------|-----------------------|--------------------------|
--------------------------|-----------------------|--------------------------|
--------------------------|----------2----2----2--|--------------------------|
--2----------2------------|--5----5--0----0----0--|--------------------------|
--0----0--0--0-0-0--0--0--|--3----3---------------|--2----------2------------|
--------------------------|-----------------------|--0----0--0--0-0-0--0--0--|

---------------------------|---------------------------|
---------------------------|---------------------------|
---------------------------|---------------------------|
---------------------------|--2----------2-------------|
--------------2------------|--0----0--0--0-0-0--0--0-0-|
----0-0-0--0--0-0-0--0--0--|---------------------------|

------------------------|-------------------|-------------------|
------------------------|-------------------|-------------------|
--------------2----2----|-------------------|--------------2----|
-----5--------0----0----|--5----------------|--------------0----|
--3--3----3-3-----------|--3----------------|-------------------|
------------------------|-------------------|-------------------|

-------------------|------------------|-------------------|-------------------|
-------------------|------------------|-------------------|-------------------|
-------------------|------------------|--2----------------|-------------------|
-------------------|------------------|--0----------------|--5----------------|
--2----------------|------------------|-------------------|--3----------------|
--0----------------|------------------|-------------------|-------------------|

---------------------------------|----------------------------|
---------------------------------|----------------------------|
---------------------------------|-----------------------2----|
---------------------------------|-----------------------0----|
--2----------2---2-----------2---|--2-----------2---2---------|
--0--0-0-0-0-0-0-0-0-0-0-0-0-0-0-|--0-0-0-0-0-0-0-0-0---------|

--0-3-7-3-0----0-3-7-3-0----|--0-7-5-7---7-5-7---7-5-7---7-5-7-|
----------------------------|----------8-------5-------8-------|
----------------------------|----------------------------------|
----------------------------|----------------------------------|
----------------------------|----------------------------------|
----------------------------|----------------------------------|

--------------0-3-0--------|----------------------------------|
----------0---------1------|----0---------------------0-------|
------------5--------------|--0---0-------------0-------2-0---|
--------7----------------2-|--------2---2-----2---2---------4-|
-----------------------3---|----------3---0-3-------3---------|
---------------------------|----------------------------------|

-------------------|------------------|--0-3-7-3-0----0-3-7-3-0----|
-------------------|------------------|----------------------------|
-------------------|------------------|----------------------------|
--4----------------|------------------|----------------------------|
--2----------------|------------------|----------------------------|
-------------------|------------------|----------------------------|

--0-10-8-10---10-8-10-------------|-----------------------------|
------------8---------------------|-----------------8-----------|
----------------------9--8--9-----|---------------9---9---------|
----------------------------------|--------7-9-10-------10------|
----------------------------------|---------------------------7-|
----------------------------------|-------------------------8---|

----------------------------------|-------------------|-----------------------|
--------------------------0-------|-------------------|-----------------------|
----4---------------0-------2-0---|-------------------|-----------------------|
--5---5-2---2-----2---2---------4-|--4----------------|--4--------4--2--------|
----------3---0-3-------3---------|--2----------------|--2--------2--0--5--4--|
----------------------------------|-------------------|-----------------3--2--|

--------------------------|---------------------------|
--------------------------|---------------------------|
--------------------------|---------------------------|
--------------------------|---------------------------|
--2----------2------------|--------------2------------|
--0----0--0--0-0-0--0--0--|----0-0-0--0--0-0-0--0--0--|

--------------------------|-----------------------|--------------------------|
--------------------------|-----------------------|--------------------------|
--------------------------|----------2----2----2--|--------------------------|
--2----------2------------|--5----5--0----0----0--|--2-----------------------|
--0----0--0--0-0-0--0-0-0-|--3----3---------------|--0----------2------------|
--------------------------|-----------------------|-------0--0--0-0-0--0--0--|

---------------------------|--------------------------|-----------------------|
---------------------------|--------------------------|-----------------------|
---------------------------|--------------------------|----------2----2----2--|
---------------------------|--2----------2------------|--5----5--0----0----0--|
--------------2------------|--0----0--0--0-0-0--0--0--|--3----3---------------|
----0-0-0--0--0-0-0--0--0--|--------------------------|-----------------------|

--------------------------|---------------------------|
--------------------------|---------------------------|
--------------------------|---------------------------|
--2-----------------------|---------------------------|
--0----------2------------|--------------2------------|
-------0--0--0-0-0--0--0--|----0-0-0--0--0-0-0--0--0--|

--------------------------|-----------------------|--------------------------|
--------------------------|-----------------------|--------------------------|
--------------------------|----------2----2----2--|--------------------------|
--2----------2------------|--5----5--0----0----0--|--2-----------------------|
--0----0--0--0-0-0--0--0--|--3----3---------------|--0----------2------------|
--------------------------|-----------------------|-------0--0--0-0-0--0--0--|

---------------------------|---------------------------|
---------------------------|---------------------------|
---------------------------|---------------------------|
---------------------------|--2----------2-------------|
--------------2------------|--0----0--0--0-0-0--0--0-0-|
----0-0-0--0--0-0-0--0--0--|---------------------------|

------------------------|-------------------|-------------------|
------------------------|-------------------|-------------------|
--------------2----2----|-------------------|--------------2----|
-----5--------0----0----|--5----------------|--------------0----|
--3--3----3-3-----------|--3----------------|-------------------|
------------------------|-------------------|-------------------|

-------------------|------------------|-------------------|-------------------|
-------------------|------------------|-------------------|-------------------|
-------------------|------------------|--2----------------|-------------------|
-------------------|------------------|--0----------------|--5----------------|
--2----------------|------------------|-------------------|--3----------------|
--0----------------|------------------|-------------------|-------------------|

---------------------------------|----------------------------|
---------------------------------|----------------------------|
---------------------------------|-----------------------2----|
---------------------------------|-----------------------0----|
--2----------2---2-----------2---|--2-----------2---2---------|
--0--0-0-0-0-0-0-0-0-0-0-0-0-0-0-|--0-0-0-0-0-0-0-0-0---------|

-------------------------------|--------------------------------|
-------------------------------|--------------------------------|
-------------------------------|--------------------------------|
---------------------------5-4-|--------------------------------|
--4--4-4-4--4-4-4--4-4-4-5-----|--4--4-4-4--4-4-4-5-4-2-4-2-----|
-------------------------------|----------------------------5-4-|

-------------------------------|------------------------|
-------------------------------|------------------------|
-------------------------------|------------------------|
---------------------------5-4-|------------2-----5--4--|
--4--4-4-4--4-4-4--4-4-4-5-----|------------0---0-3--2--|
-------------------------------|----4---4---------------|

-------------------------------|--------------------------------|
-------------------------------|--------------------------------|
-------------------------------|--------------------------------|
---------------------------5-4-|--------------------------------|
--4--4-4-4--4-4-4--4-4-4-5-----|--4--4-4-4--4-4-4-5-4-2-4-2-----|
-------------------------------|----------------------------5-4-|

-------------------------------|----------------------|
-------------------------------|----------------------|
-------------------------------|-----------------2----|
---------------------------5-4-|-----------------0----|
--4--4-4-4--4-4-4--4-4-4-5-----|----6---6---5---------|
-------------------------------|----4---4---3---------|

------------------------------|----------------------------|
------------------------------|----------------------------|
------------------------------|----------------------------|
--6------6------6------6------|--6------6------6------4----|
--4--4-4-4--4-4-4--4-4-4--4-4-|--4--4-4-4--4-4-4--4-4-2----|
------------------------------|----------------------------|

------------------------------|--------------------|
------------------------------|--------------------|
------------------------------|--------------------|
--6------6------6------6------|-----------4--------|
--4--4-4-4--4-4-4--4-4-4--4-4-|--2--------2--------|
------------------------------|--0-----------------|

------------------------------|----------------------------|
------------------------------|----------------------------|
------------------------------|----------------------------|
--6------6------6------6------|--6------6------6------4----|
--4--4-4-4--4-4-4--4-4-4--4-4-|--4--4-4-4--4-4-4--4-4-2----|
------------------------------|----------------------------|

------------------------------|--------------------|
------------------------------|--------------------|
------------------------------|--------------------|
--6------6------6------6------|-----------4--------|
--4--4-4-4--4-4-4--4-4-4--4-4-|--2--------2--------|
------------------------------|--0-----------------|

-------------------------------|--------------------------------|
-------------------------------|--------------------------------|
-------------------------------|--------------------------------|
---------------------------5-4-|--------------------------------|
--4--4-4-4--4-4-4--4-4-4-5-----|--4--4-4-4--4-4-4-5-4-2-4-2-----|
-------------------------------|----------------------------5-4-|

-------------------------------|------------------------|
-------------------------------|------------------------|
-------------------------------|------------------------|
---------------------------5-4-|------------2-----5--4--|
--4--4-4-4--4-4-4--4-4-4-5-----|------------0---0-3--2--|
-------------------------------|----4---4---------------|

-------------------------------|--------------------------------|
-------------------------------|--------------------------------|
-------------------------------|--------------------------------|
---------------------------5-4-|--------------------------------|
--4--4-4-4--4-4-4--4-4-4-5-----|--4--4-4-4--4-4-4-5-4-2-4-2-0---|
-------------------------------|------------------------------4-|

-------------------------------|----------------------|------------------|
-------------------------------|----------------------|------------------|
-------------------------------|-----------------2----|------------------|
---------------------------5-4-|-----------------0----|------------------|
--4--4-4-4--4-4-4--4-4-4-5-----|------------5---------|------------------|
-------------------------------|----4---4---3---------|------------------|

------------------|------------------|------------------|------------------|
------------------|------------------|------------------|------------------|
------------------|------------------|------------------|------------------|
------------------|------------------|------------------|------------------|
------------------|------------------|------------------|------------------|
------------------|------------------|------------------|------------------|

------------------|------------------|------------------|
------------------|------------------|------------------|
------------------|------------------|------------------|
------------------|------------------|------------------|
------------------|------------------|------------------|
------------------|------------------|------------------|

-----------------------|-------------------|---------------------------|
-----------------------|-------------------|---------------------------|
-----------------------|--------------2----|---------------------------|
-----------------------|--------------0----|---------------------------|
--2-----------------2--|-------------------|--2----2--2--2-2-2--2--2-2-|
--0----------0-0-0--0--|-------------------|--0----0--0--0-0-0--0--0-0-|

-------------------------|---------------------------|------------------------|
-------------------------|---------------------------|------------------------|
--------------------2----|---------------------------|----------------2---2---|
--------------------0----|---------------------------|----------------0---0---|
--2----2--2--2-2-2-------|--2----2--2--2-2-2--2--2-2-|--2----2--2--2----------|
--0----0--0--0-0-0-------|--0----0--0--0-0-0--0--0-0-|--0----0--0--0----------|

------------------------------|------------------------------|
------------------------------|------------------------------|
------------------------------|--------------------------2---|
--5------5------5------5------|--5------5------5-------5-0---|
--3--3-3-3--3-3-3--3-3-3--3-3-|--3--3-3-3--3-3-3-3-3-3-3-----|
------------------------------|------------------------------|

----------------------|---------------------------|--------------------|
----------------------|-----------1-0-------------|--------------------|
--4-------------------|--4------------2-0---------|--------------------|
--2--------0---0---0--|--2----------------4-2-0---|-----------4--------|
----------------------|-------------------------3-|--3-----------------|
----------------------|---------------------------|--------------------|

-------------------|----------------------|---------------------------|
-------------------|----------------------|-----------1-0-------------|
--0----------------|--4-------------------|--4------------2-0---------|
-------------------|--2--------0---0---0--|--2----------------4-2-0---|
-------------------|----------------------|-------------------------3-|
-------------------|----------------------|---------------------------|

-------------------|-------------------|----------------------------------|
-------------------|-------------------|----------------------------------|
--2----------------|-------------------|----------------------------------|
--0----------------|--2----------------|--2-2-2-2-2-2-2-2-2-2-2-2-2-2-2-2-|
-------------------|--0----------------|----------------------------------|
-------------------|-------------------|----------------------------------|

-------------------------------|--------------------|------------------|
-------------------------------|--------------------|------------------|
--4-4-4-4-4-4-4-4-4-4-4-4-2----|--4-----------------|------------------|
--2-2-2-2-2-2-2-2-2-2-2-2-0----|--2-----------------|------------------|
-------------------------------|--------------------|------------------|
-------------------------------|--------------------|------------------|

------------------|------------------|------------------|------------------|
------------------|------------------|------------------|------------------|
------------------|------------------|------------------|------------------|
------------------|------------------|------------------|------------------|
------------------|------------------|------------------|------------------|
------------------|------------------|------------------|------------------|

------------------|-------------------|------------------------------|
------------------|-------------------|------------------------------|
------------------|--------------2----|------------------------------|
------------------|--------------0----|--2---------------------------|
------------------|-------------------|--2------2------2------2------|
------------------|-------------------|--0--0-0-0--0-0-0--0-0-0--0-0-|

------------------------------|------------------------------|
------------------------------|------------------------------|
------------------------------|------------------------------|
------------------------------|--5------5------5------5------|
--2------2------2------2------|--3--3-3-3--3-3-3--3-3-3--3-3-|
--0--0-0-0--0-0-0--0-0-0--0-0-|------------------------------|

----------------------------|------------------------------|
----------------------------|--3---------------------------|
----------------------------|--2------2------2------2------|
--5------5------5-----------|--0--0-0-0--0-0-0--0-0-0--0-0-|
--3--3-3-3--3-3-3--0--2--3--|------------------------------|
----------------------------|------------------------------|

------------------------------|-------------------|-------------------|
------------------------------|-------------------|-------------------|
--2------2------2------2------|-------------------|-------------------|
--0--0-0-0--0-0-0--0-0-0--0-0-|--2----------------|--2----------------|
------------------------------|--0----------------|--0----------------|
------------------------------|-------------------|-------------------|

------------------|------------------|--------------------|
------------------|------------------|--------------------|
------------------|------------------|--------------------|
------------------|------------------|--2--------4--------|
------------------|------------------|--------------------|
------------------|------------------|--------------------|

----------------------|-----------------------|----------------------|
----------------0--1--|-------0----1---0------|------0---------------|
--0----------2--------|--2-----------------2--|--2-------2-----------|
----------------------|-----------------------|-------------4--------|
----------------------|-----------------------|----------------------|
----------------------|-----------------------|----------------------|

-------------------|-------------------|-------------------|
-------------------|-------------------|--3----------------|
-------------------|-------------------|-------------------|
-------------------|--2----------------|-------------------|
--5----------------|--0----------------|-------------------|
--3----------------|-------------------|-------------------|

--------------------|--1---------------------|--1------------------3-5-|
----------------3-4-|---------4-3-1------3-4-|---------4-3---1-3-4-----|
--------------------|------------------------|-------------3-----------|
--------------------|------------------------|-------------------------|
--------------------|------------------------|-------------------------|
--------------------|------------------------|-------------------------|

--6------------5--5-6-3-|--1------------6-----|--6------------5-----|
------------------------|---------------------|---------------------|
------------------------|---------------------|---------------------|
------------------------|---------------------|---------------------|
------------------------|---------------------|---------------------|
------------------------|---------------------|---------------------|

--6-5-3------3-6-3-8-----|
---------------------6-7-|
-------------------------|
-------------------------|
-------------------------|
-------------------------|

----6-5-3-1-3-6-3-10---6-5-3-1-3-6-8---6-5-3-1-3-6-11---6-5-3-1-3-6-|
--8------------------8---------------8----------------8-------------|
--------------------------------------------------------------------|
--------------------------------------------------------------------|
--------------------------------------------------------------------|
--------------------------------------------------------------------|

--10---6---5-3-6-3-11---6-8---6-8-6-13-11-11-10-8-10-8-6-8-6-6-8-6-5-3-5-|
-----8---8------------8-----8--------------------------------------------|
-------------------------------------------------------------------------|
-------------------------------------------------------------------------|
-------------------------------------------------------------------------|
-------------------------------------------------------------------------|

--3--1-3-1-3-1-----------------------------|----------3-5-6-8-10-11-|
---------------4-3-4-3-4-------------------|------------------------|
-------------------------5-3-5---3-5-3---0-|------------------------|
-------------------------------5-------3---|------------------------|
-------------------------------------------|------------------------|
-------------------------------------------|------------------------|

--13------11-10-8------10-11-|--13------11-10-8--6---5---|---------------3-----|
-----------------------------|---------------------------|--6------------------|
-----------------------------|---------------------------|---------------------|
-----------------------------|---------------------------|---------------------|
-----------------------------|---------------------------|---------------------|
-----------------------------|---------------------------|---------------------|

-------------------|--------------------------3--3-6-10-6-|
--3----------------|-----------------------3--------------|
-------------------|--------------0--0--3-----------------|
-------------------|--------0-----------------------------|
-------------------|-----1-----1--------------------------|
-------------------|--3-----------------------------------|

---------------------||
--8------------------||
---------------------||
---------------------||
-------3----5--------||
-------1----3--------||


© Авторские права на тексты, песни, видео и другую представленную информацию принадлежат правообладателям. Аккорды, табы, gtp и тексты песен взяты из открытых источников.
Возрастная категория сайта: 18+
Тексты некоторых песен могут содержать нецензурные выражения, брань.
© 2019 guitar-chords.ru