"Tragic Kingdom"
Hey You

(acoustic version recorded September 1996)

I'm not quite certain about some parts of the lyrics.

Intro (Fig. 1)
Verse 1 (Fig. 2)
Hey you, with the wedding dress on
made to watch your ??? blowing away (?????)
Hey you, with the dreams in your head
You've been so misled by your hearts, oh
Pre-chorus (Fig. 3, four times)
I know you're waiting for your ship to come in
You anxiously wait for such a long time (Fig. 4)
Chorus (Fig. 5)
You're just like my Ken and Barbie doll
You dress up, you play the game
You're just like my Ken and Barbie doll
Your name will never change
Verse 2
Hey you, with eyes full of hope
You think it can rope with desires
Hey you, you night thing (???)
your patience and down will die her (???)
Pre-chorus
I know you're thinking at the top of your end (????)
How did you ever get such high hopes
Chorus
You're just like my Ken and Barbie doll
In a plastic world of make believe
You're just like my Ken and Barbie doll
Your name will never change
You're just like my Ken and Barbie doll
In a plastic world of make believe
You're just like my Ken and Barbie doll
Your name will never change
Solo (Fig. 6 with Fig. 1)
(Fig. 1)
Hey you....hey you...hey you
I know your waiting for your live to begin
Oh, wake up girl you've got it all wrong, wrong, wrong.
You want a bride that you're not gonna win (???)
Oh, face it girl you got it all wrong, wrong
Chorus
You're just like a Ken and Barbie doll
you dress up, you play the game
You're just like a Ken and Barbie doll
Your name will never change
You're just like my Ken and Barbie doll
In a plastic world of make believe
You're just like my Ken and Barbie doll
Your's is just going to ??????

Tablature
(All notes are picked unless shown otherwise)
/=slide up, p=pull-off, ~=tremolo effect

Fig. 1 Intro (2 times)
E|-----------------------------------------------|
B|--------7----------5-----------7--------8------|
G|--------7----------5-----------7--------5------|
D|-----7----7----------7-------7---7--------7----|
A|--5--------------7-------5------------7--------|
E|--------------5---------------------5----------|

Fig. 2 Verse (four times)
E|----------------------------------|
B|--------7--------------5(8)-------|
G|--------7--------------5----------|
D|-----7-----7--------------7-------|
A|--5-----------------7-------------|
E|-----------------5----------------|

Fig. 3 Pre chorus
E|:---------------------|
B|:------3--------5-----|
G|:------4--------5-----|
D|:---------------------|
A|:----5--------7-------|
E|:--3-----3--5-----3---|

Fig. 4 time... (hopes....)
E|:----------------------------------------|
B|:------3---------------------------5-----|
G|:------4---------5-------5-------4-------|
D|:--------------5---5---5---5---5---------|
A|:----5-------3-------3-------3-----------|
E|:--3-----3-------------------------------|

Fig. 5
E|--------5-------------:|-----------------------------------|
B|--------7-------------:|-----5-------5-------5----------5--|
G|------7---7----------:|-----5-------5-------5(4)------4---|
D|----------------------:|---5---5---5---5---5-----5---5-----|
A|--5------------7-----:|-3-------3-------3---------3-------|
E|-------------5-------:|-----------------------------------|

Fig. 6 Solo
E|------------------------------------------------------|
B|-7------7-8--------8-10--------10-8-7-p8-7-------7-|
G|---7---------7-----------7----------------------9--7----|
D|-----7----------7-----------7------------------------|
A|-------------------------------------------------|
E|-------------------------------------------------|

E|-----7-8-7-----------------------|
B|-10--------10--8--10--/7---------|
G|----------------------------9~~~--|
D|---------------------------------|
A|---------------------------------|
E|---------------------------------|

E|-----------------------------------------|
B|--12-p13-12--10--p12--10--8--12--10~~----|
G|-----------------------------------------|
D|-----------------------------------------|
A|-----------------------------------------|
E|-----------------------------------------|

E|---------------------------------------------|
B|--8-p10-8---7-p8-7--5--8---------------------|
G|---------------------------------------------|
D|------------------------------10 p11-10-p11-10...|
A|---------------------------------------------|
E|---------------------------------------------|

E|---------------------------------------|
B|------------------------------------8---7-|
G|------------------------------7--9-------|
D|--10-7-------------7--9--10-------------|
A|--------10--9--10----------------------|
E|---------------------------------------|


© Авторские права на тексты, песни, видео и другую представленную информацию принадлежат правообладателям. Аккорды, табы, gtp и тексты песен взяты из открытых источников.
Возрастная категория сайта: 18+
Тексты некоторых песен могут содержать нецензурные выражения, брань.
© 2019 guitar-chords.ru