Инструмент: Гитара (6-ти струнная) поменять
Строй: Standart (E A D G B E) поменять
Без каподастра поменять

Hallelujah

Tuning: Standard EADGBe

Chords used:
B 
F# 
G#m 
e 
B/Eb 
F#/Bb 
A 

Intro: B  G#m E  x2

Guitar 2:
e|-7-7-7-9-9-9-11-11-11-14-14-14-14-14--|
B|-0-0-0-0-0-0--0--0--0--0--0--0--0--0-----------|
G|-----------------------------------------------|
D|-----------------------------------------------|
A|-----------------------------------------------|
E|-----------------------------------------------|


Verse 1:
F# B 
   Somehow everything's gonna
    G#m      F#/Bb 
fall right in to place
F# B 
   if we only had a way to make
      G#m   F#/Bb 
it all fall faster everyday
F# B                     G#m    F#/Bb 
   if only time flew like a dove
F# B                   G#m 
   we gotta make it fly faster
         F#/Bb 
than I'm falling in love


Interlude: B

Guitar 2:
e|-7-7-7-9-9-9-11-11-11-14-14-14-14-14--|
B|-0-0-0-0-0-0--0--0--0--0--0--0--0--0-----------|
G|-----------------------------------------------|
D|-----------------------------------------------|
A|-----------------------------------------------|
E|-----------------------------------------------|


Chorus 1:
B                            G#m e 
  This time we're not giving up
B                        G#m e 
  let's make it last forever
           F# B      G#m e 
  screaming  "hallelujah"
B                        G#m e 
  we'll make it last forever


Verse 2:
F# B                             G#m F#/Bb 
   holding onto patience wearing thin
F# B                                   G#m F#/Bb 
   I can't force these eyes to see the end
F# B                 G#m    F#/Bb 
   if only time flew like a dove
F# B 
   we could watch it fly
G#m         F#/Bb 
   and just keep looking on


Interlude: B
e|-7-7-7-9-9-9-11-11-11-14-14-14-14-14-------14-------14-------14-|
B|-0-0-0-0-0-0--0--0--0--0--0--0--0--0-11h12----11h12----11h12----|
G|----------------------------------------------------------------|
D|----------------------------------------------------------------|
A|----------------------------------------------------------------|
E|----------------------------------------------------------------|

(Repeat Chorus 1)


Interlude: B/Eb E G#m B  B/Eb E F# 

Guitar 2:
e|-----7-----7-----7-----7---7/9\7----|
B|------------------------------------|
G|------------------------------------|
D|-x-x-9-x-x-9-x-x-9-x-x-9-x-9/11\9---| (x2)
A|-x-x-6-x-x-6-x-x-6-x-x-6-x----------|
E|------------------------------------|

Bridge:
            B/Eb E G#m B     B/Eb E     F# 
and we've got time        on our   hands
             B/Eb    e           G#m     B 
and we've got    got nothing but time on our hands
B/Eb  e          F# 
  got nothing but, got nothing but
B/Eb  e           F#      B       B/Eb-e-F# 
  got nothing but time on our hands

B/Eb e G#m B G#m A 


Chorus 2:
B                            G#m e 
  This time we're not giving up
B                        G#m e 
  let's make it last forever
           F# B      G#m e 
  screaming  "hallelujah"
F# B      G#m e 
  "hallelujah"

Outro
F# B(Hold) 

            

© Авторские права на тексты, песни, видео и другую представленную информацию принадлежат правообладателям. Аккорды, табы, gtp и тексты песен взяты из открытых источников.
Возрастная категория сайта: 18+
Тексты некоторых песен могут содержать нецензурные выражения, брань.
© 2020 guitar-chords.ru