Submitted by: paramore_fans@yahoo.com

Key: F# 

Tuning: Standard E A D G 


Intro:
G|---------------------------|
D|---------------------------|
A|-6-6-6-6--1-1-1-1--2-2-2-2-|
E|---------------------------|

G|---------------------------|
D|---------------------------|
A|-6-6-6-6-----------2-2-2-2-|
E|----------2-2-2-2----------|


Verses: "Maybe if my heart stops..."
G|---------------23-22-18-18-15-15-|
D|---------------------------------|
A|-2-----2-----6-------------------| x2
E|----4-----4----------------------|


"Please don't get me wrong"
G|------------|
D|------------|
A|-2-----2----|
E|----4-----4-|


Chorus: "I'll never let this go" x2
G|--------------------------------------|
D|--------------------------------------|
A|------------------4-4-2-2-2-2-2-2-2-2-|
E|-2-2-2-2-2-2-2-2----------------------|


"But i can't find the words to tell you..."
G|-----------------------------------|
D|-----------------------------------|
A|----------1-1-1-1--2-2-2-2-2-2-2-2-|
E|-4-4-4-4---------------------------|


Bridge: "let this go"
G|---------------------------|
D|---------------------------|
A|-6-6-6-6--1-1-1-1--2-2-2-2-|
E|---------------------------|

G|---------------------------|
D|---------------------------|
A|-6-6-6-6-----------2-2-2-2-|
E|----------2-2-2-2----------|


Guitar solo:
G|---------------------------|
D|---------------------------|
A|-6-6-6-6--1-1-1-1--2-2-2-2-|
E|---------------------------|

G|---------------------------|
D|---------------------------|
A|-6-6-6-6-----------2-2-2-2-|
E|----------2-2-2-2----------|

G|---------------------------|
D|---------------------------|
A|-6-6-6-6--1-1-1-1--2-2-2-2-|
E|---------------------------|

G|-------------------------------------------4-3-|
D|-------------------------------1-1-1-3-3-3-----|
A|-6-6-6-6-----------2-2-2-4-4-4-----------------|
E|----------2-2-2-2------------------------------|

© Авторские права на тексты, песни, видео и другую представленную информацию принадлежат правообладателям. Аккорды, табы, gtp и тексты песен взяты из открытых источников.
Возрастная категория сайта: 18+
Тексты некоторых песен могут содержать нецензурные выражения, брань.
© 2020 guitar-chords.ru