Guitar1- {eb bb gb db Ab Db }
Guitar2- {eb bb gb db Ab Db }


Intro-

Guitar1
   
|-----------------------------------------------------|
|-----------------------------------------------------|
|-------------------------------------------131313-11-|2x
|-------4h6------6h9----------9h11----------x-x-x--x--|
|-4-4-4-----4-4-4-----6-6-6-----------------111111-9--|
|-----------------------------------------------------|

Guitar2

|-------------------------------------------------|
|-------------------------------------------------|
|---------------------------------13-13-13---11---|
|-111111-----111111-----131313----11-11-11---9----|2x
|-7-7-7------7-7-7------9-9-9-----11-11-11---9----|
|-7-7-7------7-7-7------9-9-9-----11-11-11---9----|

Verse-

Guitar1 

|---7---|---7---|----7----|---7-----|
|---9---|---7---|----9----|---7-----|
|---9---|---9---|----9----|---9-----|
|-------|-------|---------|---------|2x
|-------|-------|---------|---------|
|-------|-------|---------|---------|

Guitar2PALM MUTE

|--------------------------------|
|--------------------------------|
|--------------------------------|
|-7-7-7--7-7-7---9-9-9---111111--|4x
|-7-7-7--7-7-7---9-9-9---111111--|
|-7-7-7--7-7-7---9-9-9---111111--|
  * * *  * * *   * * *   * * *

Continued...

gTRi
|-----------------------------------------------------|
|-----------------------------------------------------|
|-------------------------------------------131313-11-|2x
|-------4h6------6h9----------9h11----------x-x-x--x--|
|-4-4-4-----4-4-4-----6-6-6-----------------111111-9--|
|-----------------------------------------------------|

Guitar2

|-------------------------------------------------|
|-------------------------------------------------|
|---------------------------------13-13-13---11---|
|-111111-----111111-----131313----11-11-11---9----|2x
|-7-7-7------7-7-7------9-9-9-----11-11-11---9----|
|-7-7-7------7-7-7------9-9-9-----11-11-11---9----|

REPEAT Verse

Pre-chorus

G1

|----|
|----|
|-4~-|
|-2~-|
|-2~-|
|-2~-|

G2

|-0--|
|-0--|
|-9~-|
|-9~-|
|-7~-|
|----|

Chorus-

Guitar1

|--------------------------------|
|--------------------------------|
|---------------6666--44444------|
|-77777--22222--6666--44444------|
|-77777--22222--4444--22222------|
|-77777--22222-------------------|

Guitar2

|-16~------16~-------------------|--16~------16~-----14~------14~-------|
|-----17~-------17~--16h17-16----|-------17~-----17~--------------------|
|----------------------------16--|----------------------16~-------16~---|
|--------------------------------|--------------------------------------|
|--------------------------------|--------------------------------------|
|--------------------------------|--------------------------------------|

GUITAR1

|--------------------------------|
|--------------------------------|
|----------------4444444444------|
|-77777--222222--4444444444------|
|-77777--222222--2222222222------|
|-77777--222222------------------|

GUITAR2

|-16~------16~-------------------|--14~------14~----14~------14~--------|
|-----17~-------17~--16h17-16----|--------------------------------------|
|----------------------------16--|------16~-------16~----16~-------16~--|
|--------------------------------|--------------------------------------|
|--------------------------------|--------------------------------------|
|--------------------------------|--------------------------------------|

GUITAR1

|-------------------------|   
|-------------------------|   
|---6666666--4444444------|   
|---6666666--4444444------|2x
|---4444444--2222222------|   
|-------------------------|

GUITAR2(I CAN HEAR GUITAR 2 AT THIS PART...)
not sure of this tab..
|--------------------------------------------------------------------|
|--------------------------------------------------------------------|
|---------------------13-13----1616---13--13-13----------------------|
|--14-14-14--16-16--------------------------------16--16--16--16-----|
|--------------------------------------------------------------------|
|--------------------------------------------------------------------|


|--------------------------------------------------------------------|
|--------------------------------------------------------------------|
|---------------------13-13----1616---13--13-13----------------------|
|--14-14-14--16-16--------------------------------14--16--16--16-----|
|--------------------------------------------------------------------|
|--------------------------------------------------------------------|

GUITAR1
|--------------------------------|
|--------------------------------|
|----------------4444444444------|
|-77777--222222--4444444444------|
|-77777--222222--2222222222------|
|-77777--222222------------------|   



Guitar2
|-16~------16~-------------------|--14~------14~----14~------14~--------|
|-----17~-------17~--16h17-16----|--------------------------------------|
|----------------------------16--|------16~-------16~----16~-------16~--|
|--------------------------------|--------------------------------------|
|--------------------------------|--------------------------------------|
|--------------------------------|--------------------------------------|

Interlude-

Guitar2

|-------------------------------------------------|
|-------------------------------------------------|
|---------------------------------13-13-13---11---|
|-111111-----111111-----131313----11-11-11---9----|2x
|-7-7-7------7-7-7------9-9-9-----11-11-11---9----|
|-7-7-7------7-7-7------9-9-9-----11-11-11---9----|

then...
do intro

repeat verse

Pre-chorus

Repeat Chorus

Verse-

Continued...
Do intro

Chorus-

Drum beats then

|-----------------------------|
|-----------------------------|
|--4-4-4-4-4-44444444---------|
|--4-4-4-4-4-44444444---------|
|--2-2-2-2-2-22222222---------|
|-----------------------------|
   * * * * * *   

Repeat chorus then

G1
|-16~---14~------12~~------|
|-17~---14-------12~~------|
|-16----16~------11--------|
|--------------------------|
|--------------------------|
|--------------------------|


G2

|-------------------0--|
|-------------------0--|
|-------------------4--|
|-777-xxxx-777-xxxx-2~-|
|-777-xxxx-777-xxxx-2~-|
|-777-xxxx-777-xxxx-2~-|

© Авторские права на тексты, песни, видео и другую представленную информацию принадлежат правообладателям. Аккорды, табы, gtp и тексты песен взяты из открытых источников.
Возрастная категория сайта: 18+
Тексты некоторых песен могут содержать нецензурные выражения, брань.
© 2020 guitar-chords.ru