Mutter 2001, Sonne (Single) 2001
Adios

tuning: dropped D 
Key = F 

Intro:        
Bb F A C A Bb F D 

Part 1:           Bb C  D   D 
e|-------------------------------|-------------------------|
B|-------------------------------|-------------------------|
G|-------------------------------|-------------------------|
D|-8-10--12--12-12-12-12-12-12---|-12--12-12-12-12-12-12---|
A|-8-10--12--12-12-12-12-12-12---|-12--12-12-12-12-12-12---|
D|-8-10--12--12-12-12-12-12-12---|-12--12-12-12-12-12-12---|
    |____Palm muted___|      |___Palm muted____|

   D 
e|-------------------------------------|
B|-------------------------------------|
G|-------------------------------------|
D|-12--12-12-12-12-12-12-12-12-12-12---|
A|-12--12-12-12-12-12-12-12-12-12-12---|
D|-12--12-12-12-12-12-12-12-12-12-12---| } repeat
      |__________Palm muted_________|

Part 2:           Bb C  D 
e|-----------|
B|-----------|
G|-----------|
D|-8-10--12--|
A|-8-10--12--|
D|-8-10--12--|

acoustic part:    Bb F A C A Bb F D 

Chorus:        
  Bb         F          (G)  A    C  A  (G) (F) 
|-----------------------------------------------|
|-----------------------------------------------|
|-----------------------------------------------|
|-8--8--8--8-3--3--3--3-(5)--7--7-10-7-(5)-(3)--|
|-8--8--8--8-3--3--3--3-(5)--7--7-10-7-(5)-(3)--|
|-8--8--8--8-3--3--3--3-(5)--7--7-10-7-(5)-(3)--|

  Bb     F       D 
|--------------------------|
|--------------------------|
|--------------------------|
|-8--8--8--8-3--3--3--3--0-|
|-8--8--8--8-3--3--3--3--0-|
|-8--8--8--8-3--3--3--3--0-|

Solo:        
|------------------------------|
|------------------------------|
|------------------------------|
|-5-7-7--5-7-7--5-7-7-7--5-3-0-|
|------------------------------|
|------------------------------|


© Авторские права на тексты, песни, видео и другую представленную информацию принадлежат правообладателям. Аккорды, табы, gtp и тексты песен взяты из открытых источников.
Возрастная категория сайта: 18+
Тексты некоторых песен могут содержать нецензурные выражения, брань.
© 2019 guitar-chords.ru