Mortal Combat

Riff 1 2X:    
e|-------------------------|-------------------------|
B|-------------------------|-------------------------|
G|-------------------------|-------------0-----------|
D|--------------0-----2--0-|-------2-----------2-----|
A|--0--0--3--0-----0-------|-3--3-----3-----3-----3--|
E|-------------------------|-------------------------|

e|------------------------|------------------------|
B|------------------------|------------------------|
G|------------------------|------------------------|
D|-------------------0----|------------------------|
A|-------2-----3--------3-|-------0-----3-----3--2-|
E|-3--3-----3-----3-------|-1--1-----1-----1-------|

Riff 2:        
e|---------------------|-------------------|------------------|
B|-----------------1---|-------------------|----------------1-|
G|--2--2--2--2--0------|-2--2--2--2--0-----|-2--2--2--2--0----|
D|---------------------|----------------2--|------------------|
A|---------------------|-------------------|------------------|
E|---------------------|-------------------|------------------|

e|---------------------|-------------------|------------------|
B|---------------------|-----------------1-|------------------|
G|-2--2--2--2--2--2--2-|--2--2--2--2--0----|-2--2--2--2--0----|
D|---------------------|-------------------|----------------2-|
A|---------------------|-------------------|------------------|
E|---------------------|-------------------|------------------|

e|---------------------|-------------------------0----------------------|
B|-------------------1-|-------------------------------1-----------1----|
G|----2--2--2--2--0----|-2--2--2--2--2--2--2--2-----2-----2--3--2-----2-|
D|-2-------------------|------------------------------------------------|
A|---------------------|------------------------------------------------|
E|---------------------|------------------------------------------------|

e|----------0--------------------------------0-------------------------|
B|----------------1-----------1--------------------1-----------1-------|
G|-3--0--2-----2-----2--3--2-----2--3--0--2-----2-----2--3--2-----2--3-|
D|---------------------------------------------------------------------|
A|---------------------------------------------------------------------|
E|---------------------------------------------------------------------|

e|-------0--------------------------0--------------------------------0-|
B|-------------1--------------------------1-----------1----------------|
G|-0--2-----2-----0--0--0--2--2--2-----2-----2--3--2-----2--3--0--2----|
D|---------------------------------------------------------------------|
A|---------------------------------------------------------------------|
E|---------------------------------------------------------------------|

e|-------------------------------0----------------------------|
B|----1-----------1--------------------1-----------1----------|
G|-2-----2--3--2-----2--3--0--2-----2-----2--3--2-----2--3--0-|
D|------------------------------------------------------------|
A|------------------------------------------------------------|
E|------------------------------------------------------------|

e|---------------------------------------------------|
D|----------------1----------------------------------|
G|-2--2--2--2--0-----2--2--2--2--0-----2--2--2--2--0-|
D|----------------------------------2----------------|
A|---------------------------------------------------|
E|---------------------------------------------------|

Другие песни этого исполнителя/группы


© Авторские права на тексты, песни, видео и другую представленную информацию принадлежат правообладателям. Аккорды, табы, gtp и тексты песен взяты из открытых источников.
Возрастная категория сайта: 18+
Тексты некоторых песен могут содержать нецензурные выражения, брань.
© 2020 guitar-chords.ru