intro:        
e----4--------5--------x---6---x---6---x---x---6---x---x---6---x---6---x---x } play 4x
b----6--------6--------x---6---x---6---x---x---9---x---x---9---x---6---x---x
g----5--------5-----------------------------------------------------------------
d----6--------7-----------------------------------------------------------------
a----4--------5-----------------------------------------------------------------
e--------------------------------------------------------------------------------

verse 1:    e---4---------5-------x---6---x---6---x---x---6---x---x---6---x---6---x---x } play 4x
b---6---------6-------x---6---x---6---x---x---9---x---x---9---x---6---x---x
g---5---------5----------------------------------------------------------------
d---6---------7----------------------------------------------------------------
a---4---------5----------------------------------------------------------------
e-------------------------------------------------------------------------------

pre-chorus:    e--------------------------------------------------- } play 8x
b---------------------------------------------------
g---------------------------------------------------
d---------------------------------------------------
a---8----8---0---3---6---6---6---6---6---6---6
e---6----6---0---1---4---4---4---4---4---4---4

chorus 1  (same tab as pre-chorus, but only played 4x)
verse 2 (same tab as verse 1)
pre chorus 2 (same tab as pre-chorus 2)
chorus 2 (same tab as chorus 1)

interlude:    
e---6---x---x---6---x---x---6---x---x---6---x---x---6---x---x---x } play 4x
b---6---x---x---6---x---x---6---x---x---6---x---x---6---x---x---x
g--------------------------------------------------------------------
d--------------------------------------------------------------------
a--------------------------------------------------------------------
e--------------------------------------------------------------------

bridge:        
e---6---------------6----4--------------4----- } play 4x
b---6---------------6----4--------------4-----
g---7---------------7----5--------------5-----
d-----------------------------------------------
a-----------------------------------------------
e-----------------------------------------------

e------------------------------------------------- } play 2x
b-------------------------------------------------
g-------------------------------------------------
d-------------------------------------------------
a---8---8---0---3---6---6---6---6---6---6---6
e---6---6---0---1---4---4---4---4---4---4---4

outro:        
e------------------------------------------------- } play 4x
b-------------------------------------------------
g-------------------------------------------------
d-------------------------------------------------
a---8---8---0---3---6---6---6---6---6---6---6
e---6---6---0---1---4---4---4---4---4---4---4


© Авторские права на тексты, песни, видео и другую представленную информацию принадлежат правообладателям. Аккорды, табы, gtp и тексты песен взяты из открытых источников.
Возрастная категория сайта: 18+
Тексты некоторых песен могут содержать нецензурные выражения, брань.
© 2020 guitar-chords.ru