part 1:
   G#    a#    a#  (type 2)
E--4-----5-----6--6--6--6-6-----
B--6-----6-----6--6--6--6-6-----
G--5-----5-----7--7--7--7-7----- -play this ska thing
D--6-----7-----8--8--8--8-8----- -    a few times
A-------------------------------
E-------------------------------

part 2:
With distortion:
   A#    a     (G#)   (A#) 
E--------------------------------
B--------------------------------
G-------------------------------- -frets in parenthesis
D--8--8--7--(7)\6--(6)/8--------- -indicate the previous
A--8--8--7--(7)\6--(6)/8--------- -chord being held out
E--6--6--5--(5)\4--(4)/6--------- -   (not muted)

part 3:
   A#               g# 
E--6-6-x-x-6-x-6-x--4-4-x-x-4-x-4-x-
B--6-6-x-x-6-x-6-x--4-4-x-x-4-x-4-x-
G--7-7-x-x-7-x-7-x--5-5-x-x-5-x-5-x-
D--8-8-x-x-8-x-8-x--6-6-x-x-6-x-6-x-
A-----------------------------------
E-----------------------------------

part 4:
   A#    g#    a#    g#    a#    g#    a#    g# 
E--6---6-4---4-6---6-4---4-6---6-4---4-6---6-4-
B--6---6-4---4-6---6-4---4-6---6-4---4-6---6-4-
G--7---7-5---5-7---7-5---5-7---7-5---5-7---7-5-
D--8---8-6---6-8---8-6---6-8---8-6---6-8---8-6-
A--8---8-6---6-8---8-6---6-8---8-6---6-8---8-6-
E--6---6-4---4-6---6-4---4-6---6-4---4-6---6-4-

© Авторские права на тексты, песни, видео и другую представленную информацию принадлежат правообладателям. Аккорды, табы, gtp и тексты песен взяты из открытых источников.
Возрастная категория сайта: 18+
Тексты некоторых песен могут содержать нецензурные выражения, брань.
© 2020 guitar-chords.ru