Verse:        
|-------------------------
|-------------------------
|-------------------------
|-------x-x-8-8-8---------
|-6-6-6-x-x-6-6-6-3-4-3-4-
|-4-4-4-----------1-2-1-2-

|----------------------------
|----------------------------
|----------------------------
|----------------------------
|-10--3-5-3-5--10-10-10-11-10-
|--8--1-3-1-3--8--8--8---9--8-

Chorus:        
|-------------------------------
|-------------------------------
|-------------------------------
|-------------------------------
|-9-9--3-3--4-4-x-4-4-4-x-4-4-4-
|-7-7--1-1--2-2-x-2-2-2-x-2-2-2-

End:        
|--------------------------- } 3x
|---------------------------
|---------------------------
|---------------------------
|-3-3-2-3-2-3-2-3-3-2-3-4-4-
|-1-1-0-1-0-1-0-1-1-0-1-2-2-

Very end:    |-------------------------------
|-------------------------------
|-------------------------------
|-------------------------------
|-3-3-2-3-2-3-2-3-3-2-3-4-4-3-3-
|-1-1-0-1-0-1-0-1-1-0-1-2-2-1-1-
                              ^
Let the last chord ring-------|


© Авторские права на тексты, песни, видео и другую представленную информацию принадлежат правообладателям. Аккорды, табы, gtp и тексты песен взяты из открытых источников.
Возрастная категория сайта: 18+
Тексты некоторых песен могут содержать нецензурные выражения, брань.
© 2020 guitar-chords.ru