SONG ORDER
*Drum Intro*
*verse*(7x's)
|------------------------------------------------|
|------------------------------------------------|
|------------------------------------------------|
|------------------------------------------------|
|----------------8-8-8-8\------------------------|
|----6-6-6-6-6-6-----------1-2-1-2---------------|
  pm.-----------------) pm.-------)
*verse 2*(4x's)
|--------------------------------|
|--------------------------------|
|--------------------------------|
|--------------------------------|
|---3----------3-0-4h6p4---------|
|-----4p3--1-3-------------------|
*verse*(7x's)
*verse2*(4x's)
*chorus*(4x's)
|-------------------------------------|
|-------------------------------------|
|-------------------------------------|
|-------------------------------------|
|--10-10-----3-3---4xx4xx4x4x4xx4-----|
|---8--8-----1-1---2xx2xx2x2x2xx2-----|
*verse*(7x's)
*verse2*(4x's)
*chorus*(4x's)
*outro*
|-----------------------------------|-------|
|-----------------------------------|-------|
|-----------------------------------|-------|
|---------------------Repeat--------|-------|
|--3--2--3--2--3-2-3---------4-4----|-3-3---|
|--1--0--1--0--1-0-1---------2-2----|-1-1---|
                                     End on this

© Авторские права на тексты, песни, видео и другую представленную информацию принадлежат правообладателям. Аккорды, табы, gtp и тексты песен взяты из открытых источников.
Возрастная категория сайта: 18+
Тексты некоторых песен могут содержать нецензурные выражения, брань.
© 2020 guitar-chords.ru