Fist tune down 1/2 step.
b=bend
h=hammer on
p=pull off
*=hold bend
/ or \=slide
1|----------------------------
2|----------------------------
3|----------------------------
4|----5b--5-------0---------0-
5|----------7---7---7-----5---
6|--0---------5-------5\3-----
Heres the lead intro
1|-----------------------------------------------------------
2|--3h5--3---------------------------------------------------
3|---------0-2b-2^-2b-2b-2-0---------------------------------
4|----------------------------2-------2--0--0h2p0------------
5|------------------------------------------------2----------
6|------------------------------0--3b---------------3-0-3-0--

1|---------------------------------------10\9--7--7/9-
2|--12--14b-14--------12------------------------------
3|--12--14b-14h12-----12-----------------10\9--7--7/9-
4|----------------14----------------------------------
5|----------------------------------------------------
6|----------------------------------------------------

1|--9--10\9--7/9--9--10\9--7--7/9--9--------------------------
2|-------------------------------------14b--14------14b--14---
3|--9--10\9--7/9--9--10\9--7--7/9--9---14b--14------14b--14---
4|------------------------------------------------------------
5|------------------------------------------------------------
6|------------------------------------------------------------
chorus
   A       G        C         B 
E-5      E-3      E-8       E-7
B-5      B-3      B-8       B-7
G-6      G-4      G-9       G-8
D-7      D-5      D-10      D-9
A-7      A-5      A-10      A-9
E-5      E-3      E-8       E-7
bridge
1|------------------------------------------------------------------
2|------------------------------------------------------------------
3|------0-------0-----0-------0-------0-------0-------0-------0-----
4|------5-------5-----5-------5-------5-------5-------5-------5-----
5|--3-3---3-3-3---3-4---4-4-4---4-6-6---6-6-6---6-6-6---6-6-6---6---
6|--4-4---4-4-4---4-5---5-5-5---5-5-5---5-7-7---7-7-7---7-7-7---7---

1|-------------------------
2|-------------------------
3|-------------------------
4|----2----------0-----0---
5|------1b-1---2-----1---1-
6|--0--------3-----2-------
Outro
1|----0-------0-----0-----0-------0------0---------
2|------0-------------------0-------0--------------
3|--------14b---14b---14b-----14b-----14---12------
4|-------------------------------------------------
5|-------------------------------------------------
6|--0--------------------------------------------------


© Авторские права на тексты, песни, видео и другую представленную информацию принадлежат правообладателям. Аккорды, табы, gtp и тексты песен взяты из открытых источников.
Возрастная категория сайта: 18+
Тексты некоторых песен могут содержать нецензурные выражения, брань.
© 2020 guitar-chords.ru