I noticed that nobody had the solo included in their transcriptions,
so here it is:

                                                      full bend
e|-----------------|-----------------------------------|
B|-----------------|-----------------------------------|
G|-----------------|-------------12h14p12-12~---14^|
D|-----------------|-------12h14-----------------------|
A|-----------------|-13h14-----------------------------|
E|-0---------------|-----------------------------------|
  gradual
  release
e|---------------------|-----------------------------|
B|-------------15------|---------------------14--12~~~
G|^^^^^^^14--------14~------------14-14--12~~~
D|---------------------|------------12h14-14---------|
A|---------------------|------12h14------------------|
E|---------------------|-----------------------------|
                                                Hold bend and strike
                                              1 bend......release
e|----------------------------|-----------------|----------------------|
B|~~-15^r(15)^^^^^r(15)-------|--------------5--|--5--5--5--5----------|
G|-----------------------12(12)\-7^----7--7--7--7-r(7)-----|
D|----------------------14----|-----------------|--------------------5~~
A|----------------------------|-----------------|-----------------7----|
E|----------------------------|-----------------|----------------------|
                1/2                  1/2 bend
e|-------------------|------0---------0------0------|
B|------------12-----|(12)-----0--------------------|
G|--------14--14^^^^^|(14)--------15-----15-----15^^|
D|~~-/14-------------|------------------------------|
A|-------------------|------------------------------|
E|-------------------|------------------------------|
                                                     1/2 bend
e|--0---------0------0------|--0---------0------0------|
B|-----0--------------------|-----0--------------------|
G|^^------15-----15-----12~------15-----15-----15^^^
D|--------------------------|--------------------------|
A|--------------------------|--------------------------|
E|--------------------------|--------------------------|
                                                    1/2 bend
e|--0---------0------0------|--0---------0------0------|
B|-----0--------------------|-----0--------------------|
G|^^------15-----15-----12-------15-----15-----15^^^
D|--------------------------|--------------------------|
A|--------------------------|--------------------------|
E|--------------------------|--------------------------|

e|--0---------0------0------|--0---------0------0-------|
B|-----0--------------------|-----0----------------12/15|
G|^^------15-----15-----12~------15-----15----------|
D|--------------------------|---------------------------|
A|--------------------------|---------------------------|
E|--------------------------|---------------------------|
                                        "Like   the     cold - est..."
e|-----0---------0-----0----|--0-----------------------|
B|-15-----14----13----12----|-10-----------------------|
G|--------------------------|--------------------------|
D|--------------------------|--------------------------|
A|--------------------------|--------------------------|
E|--------------------------|--------------------------|

© Авторские права на тексты, песни, видео и другую представленную информацию принадлежат правообладателям. Аккорды, табы, gtp и тексты песен взяты из открытых источников.
Возрастная категория сайта: 18+
Тексты некоторых песен могут содержать нецензурные выражения, брань.
© 2020 guitar-chords.ru