this is i stay away THE RIGHT WAY by alice in chains. You start off
with a D  chord, C , then into this riff,1:
1|-------------3-------------
2|---------------------------
3|----0-----0----------------
4|--0-----0----0------------- X?
5|3-----2------2-------------
6|-------------3--3--3-3-2-0-
The post chorus is 4 power chords D , F , E , and D# 
Chorus is
1|0--0--0---------------------
2|3--3--3---------------------
3|2--2--2---------------------
4|--------------8---8--10--12-
5|--------------8---8--10--12-
6|--------------6---6--8---10-
Sorry, i'm still working on the solo


© Авторские права на тексты, песни, видео и другую представленную информацию принадлежат правообладателям. Аккорды, табы, gtp и тексты песен взяты из открытых источников.
Возрастная категория сайта: 18+
Тексты некоторых песен могут содержать нецензурные выражения, брань.
© 2020 guitar-chords.ru