How to play I Stay Away the right way. First tune your guitar down (Db, Ab, Db, Gb, Bb, Eb)
()=hammer-on or pull-off
b=bend
e-------2--0-------0----------|-----------------------------------|
b-3-----3--3-------3----------|-----------------------------------|
g-0-(2)-2--2-0-----0----------|------0------0---------------------|
d-0-------------0--2----------|----0------0-------0-----0---------|
a-0----------------3----------|--3------2-------0-----0-----------|
e-0---------------------------|---------------5-----5-----5-4-0---|
Pre-Chorus:
e-------------------------------------------------------------
b-------------------------------------------------------------
g-------------------------------------------------------------
d-5b-5-3-(5)-(3)-(0)---0-----------------------5b--5(3)-------
a--------------------3---3-(0)---------------------------
e------------------------------5-3b----3b-3------------------

e--------------------------|
b--------------------------|
g--------------------------|
d--------------------------|
a-0-(3)-(5)--3-(0)---------|
e------------------3b---3--|

© Авторские права на тексты, песни, видео и другую представленную информацию принадлежат правообладателям. Аккорды, табы, gtp и тексты песен взяты из открытых источников.
Возрастная категория сайта: 18+
Тексты некоторых песен могут содержать нецензурные выражения, брань.
© 2020 guitar-chords.ru