Verse:        
P.M.
e-------------------------------------------------
B-------------------------------------------------
G-------------------------------------------------
D-------------------------------------------------
A-------------------------------------------------
E--5-5-3-77-88-77-3-5-----------------------------

Pre-Chorus:    "annie are you ok?"
e-------------------------------------------------
B-------------------------------------------------
G-------------------------------------------------
D:-3------5--3-------------------------------------
A:-3------5--3-----------------------------------
E:-1------3--1-------------------------------------

Chorus:        
"annie are you ok? would you tell us that you're ok?"
e-------------------------------------------------
B-------------------------------------------------
G-------------------------------------------------
D-7-5--3-5---7------------------------------------
A-7-5--3-5---7------------------------------------
E-5-3--1-3-5-5------------------------------------

Bridge:        
e----
B----
G----
D-2-- THEN START doin some pick scrapes.
A-2--
E-0--

Solo:        
this is basically it...its real fast
B---5p4---------------------------------------
G-------7p5p0-0-0-7---------------------------


© Авторские права на тексты, песни, видео и другую представленную информацию принадлежат правообладателям. Аккорды, табы, gtp и тексты песен взяты из открытых источников.
Возрастная категория сайта: 18+
Тексты некоторых песен могут содержать нецензурные выражения, брань.
© 2020 guitar-chords.ru