This is a very GOOD cover of wacko jacko's a smooth criminal its very good but
i dont think they can liean at a 60 degree angle.
------------------------------------------------------------------------------
-2--2--2--2--xxx----4--4---xx--5--5--xx--5--4--2-------2----------------------
-2--2--2--2--xxx----4--4---xx--5--5--xx--5--4--2-------2----------------------
-2--2--2--2--xxx----4--4---xx--5--5--xx--5--4--2-------2----------------------
-0--0--0--0--xxx----2--2---xx--3--3--xx--3--2--0-------0----------------------
------------------------------------------------------------------------------
Continue through the Verse
------------------------------------------------------------------------------
---2----------------------------------4-----x-2-------------------------------
---2----------------------------------4---2-x-2-------------------------------
---2----------------------------------4---2-x-2-------------------------------
---0----------------------------------2---2-x-0-------------------------------
------------------------------------------0-x---------------------------------
This is played at the first"Annie are you ok"
------------------------------------------------------------------------------
------------------------------------------------------------------------------
--2--2--2--2--2--2--0--0--0-----5/4--0---6------------------------------------
--2--2--2--2--2--2--0--0--0-----5/4--0---6------------------------------------
--2--2--2--2--2--2--0--0--0-----5/4--0---6------------------------------------
--0--0--0--0--0--0--0--0--0-----3/2--0---4------------------------------------
   This is played at high pitched " Annie are you ok"
------------------------------------------------------------------------------
------------------------------------------------------------------------------
----------------------2-2---------------------2-------------------------------
----------------------2-2---------------------2-------------------------------
----------------------2-2---------------------2-------------------------------
----------------------0-0---------------------0-------------------------------
"YOU'VE BEEN HIT BY    YOU'VE BEEN STRUCK BY  A SMOOTH CRIMINAL"
------------------------------------------------------------------------------
------------------------------------------------------------------------------
------------------------------------------------------------------------------
------------------------------------------------------------------------------
------------------------------------------------------------------------------
------------------------------------------------------------------------------

© Авторские права на тексты, песни, видео и другую представленную информацию принадлежат правообладателям. Аккорды, табы, gtp и тексты песен взяты из открытых источников.
Возрастная категория сайта: 18+
Тексты некоторых песен могут содержать нецензурные выражения, брань.
© 2020 guitar-chords.ru