e -|-------5-------------------4---------5-------------------4-|
B -|--2---------2----3----5---------2---------2----3----5------|
G -|-----------------------------------------------------------|
D -|-----------------------------------------------------------|
A -|-----------------------------------------------------------|
E -|-----------------------------------------------------------|

Then the ending:

e -|--------5------------------4--------4----2----4---5--------|
B -|---2--------2----3----5------------------------------------|
G -|-----------------------------------------------------------|
D -|-----------------------------------------------------------|
A -|-----------------------------------------------------------|
E -|-----------------------------------------------------------|


© Авторские права на тексты, песни, видео и другую представленную информацию принадлежат правообладателям. Аккорды, табы, gtp и тексты песен взяты из открытых источников.
Возрастная категория сайта: 18+
Тексты некоторых песен могут содержать нецензурные выражения, брань.
© 2020 guitar-chords.ru