Start

e---5-------4-0-0-0------\
B-2---2-3-5---0-0-0------|
G-------------1-1-1------|
D-------------2-2-2------|
A-0---0-------2-2-2------|
E-----------0-0-0-0------/

End

e---5-------4-4-2-4-5---\
B-2---2-3-5-------------|
G-----------------------|
D-----------------------|
A-0---0-------------0---|
E-----------0-0-0-0-----/

=====================================

     A            E 
|-----5-------------|--------|
|----------------9--|-----/--|
|--6-----6h7--9-----|--.-/---|
|-------------------|---/-.--|
|-------------------|--/-----|
|-------------------|--------|

          A       E7   F#m    A7        D   Dm      A 
There are places I'll remember, all my life, though some have
changed
              E7      F#m   A7          D  Dm    A
Some forever, not for better, some have gone and some remain.
          F#m              Bm            G                     A
All these places had their moments, with lovers and friends, I still
can recal.
         F#m               B           D            A
Some are dead and some are living.  In my life I've loved them all.

(OPENING RIFF)

ELECTRIC PIANO SOLO:

|------------9-----12p10--12----------------------9p7--9---10--12--15--|
|-----10h12----10-------------12-----12---7h9/10-----------------------|
|---------------------------------9------------------------------------|
|----------------------------------------------------------------------|
|--0-------------------------------------------------------------------|
|----------------------------------------------------------------------|

|-14-12-14----14----14----13p12--13-------12-10-12-9-12----12----12p10--12-9-----|
|----------15----14----12-----------15-12---------------12----10-------------12--|
|--------------------------------------------------------------------------------|
|--------------------------------------------------------------------------------|
|--------------------------------------------------------------------------------|
|--------------------------------------------------------------------------------|

(FIRST LINE AGAIN)

|--12--9h10h12--9-------------------------------|
|-----------------10---9---10p9p7---------------|
|--------------------9-------------9p7p6--------|
|------------------------------------------9p7--|
|-----------------------------------------------|
|-----------------------------------------------|

The rest of the song is the same except
for this little bit at the end:

   E7        A 
|------------5--|
|--9--7-9----5--|
|--7---------6--|
|--9---------7--|
|--7------------|
|---------------|

CHORDS USED:    A   - 566755
E7  - 020100
F#m - 244222
A7  - 575655
D   - X57775
Dm  - X57765
Bm  - X24432
G   - 355433
B   - X24442

© Авторские права на тексты, песни, видео и другую представленную информацию принадлежат правообладателям. Аккорды, табы, gtp и тексты песен взяты из открытых источников.
Возрастная категория сайта: 18+
Тексты некоторых песен могут содержать нецензурные выражения, брань.
© 2020 guitar-chords.ru