Easy melody Version

          C              G                 Am         G  Fmaj7 
e|--------------|----------------|---------0---0-|-0------------|
B|--------------|----------------|-1---3---1---1-|-1--3--3-----1|
G|-0---0--0---0-|-2------0-----0-|-0-------------|----4--2------|
D|--------2-----|-----2----------|---------------|-------2------|
A|--------------|--------2-------|---------------|--------------|
E|--------------|----------------|---------------|--------------|
  When I find my-self in times of trou-ble Moth-er Ma-ry comes to

   F   C                  G                    F  C   Dm7  C 
e|-----0-----0----1---|-0-0-------0--|--------------|--------------
B|-1------------------|---0---3------|-3-3-----1----|--------------
G|-2---0-----0----2---|-0-----4------|------------0-|--------------
D|-3------------------|--------------|--------------|--3---2-------
A|--------------------|--------------|--------------|--------------
E|--------------------|--------------|--------------|--------------
   me, Speak-ing words of wis-dom let it be  -------

      C              G                 Am             G    F 
e|--------------|----------------|---------0---0----|--------------|
B|--------------|-1------------1-|-3--3----1---1----|-3--3----1--1-|
G|-0---0--0---0-|-2--0---0-----0-|----4-------------|-4--2----2--2-|
D|--------2-----|-3--------------|------------------|--------------|
A|--------------|----2-----------|------------------|--------------|
E|--------------|----------------|------------------|--------------|
  And in my hour of dark-ness She is stand-ing right in front of me

   C                   G                   F    C Dm7   C 
e|-0-----0----1----0-|-0-------0----|----------------|----------
B|-------------------|-0---3------3-|-3-----1--------|----------
G|-0-----0----2----0-|-----4--------|----------0-----|----------
D|-------------------|--------------|--------------3-|--2-------
A|-------------------|--------------|----------------|----------
E|-------------------|--------------|----------------|----------
   Speak-ing words of wis-dom let it be  -------

          G       Am7        G              F                      C 
e|-0------------|-0---3--5---5-3-|-3--3--0--0--|--------------|-0------------
B|----3--1---1--|-1----------0---|-0-----------|-3--1---------|----1---------
G|-0---------2--|----------------|-------------|----2---2---0-|-0------------
D|--------------|----------------|-------------|--------------|----2---------
A|--------------|----------------|-------------|--------------|--------------
E|--------------|----------------|-------------|--------------|--------------
  Let it be, ---- Let it be, ----  Let it be, ----      Let it  be, ----

                        G                F   C   Dm7  C 
e|-0----0---1-----0-|-0-------0-----|--------------|--------------|
B|------------------|-0--3--------3-|-3--1---------|--------------|
G|-0----0---2-----0-|----4----------|--------0-----|--------------|
D|------------------|---------------|------------3-|--2-----------|
A|------------------|---------------|--------------|--------------|
E|------------------|---------------|--------------|--------------|
   Whis-per words of wis-dom, let it be

   F  Em Dm C   Bb F  G  F   C  F         C        G   F  C  G  F   G    C 
e|-5--3--1--0-|----------1-|-0----------|-0----------|------------|----------||
B|----0-------|-3--1--3----|----1--1--3-|----3--1----|-1--1--0--1-|-3----1---||
G|-5-----2--0-|-------4--2-|-0--2--2----|-0--------0-|-2-----0--2-|-4--------||
D|------------|-3--3-------|------------|-------2--0-|----2-------|------2---||
A|------------|------------|------------|------------|------------|----------||
E|------------|------------|------------|------------|------------|----------||


© Авторские права на тексты, песни, видео и другую представленную информацию принадлежат правообладателям. Аккорды, табы, gtp и тексты песен взяты из открытых источников.
Возрастная категория сайта: 18+
Тексты некоторых песен могут содержать нецензурные выражения, брань.
© 2020 guitar-chords.ru