Capo 2nd fret.

     D                                                               D    D 
E ||-2----2------2---2---2--2--2------------------2------------------2----0h2-|
B ||-3----3------3---3---3--3--3------------------3--------3---------3----3---|
G ||-2----4------2---0---0--0--0-------0----------2--------0---------2----2---|
D |--0----0------0---0---4--4--4---2----------4---0------------------0----0---|
A ||-0-------------------------------------------------3--------2----0----0---|
E ||--------------------------------------------------------------------------|

     D                                                               D    D 
E |--2----2------2---2---2--2--2------------------2------------------2----0h2-|
B |--3----3------3---3---3--3--3------------------3--------3---------3----3---|
G |--2----4------2---0---0--0--0-------0----------2--------0---------2----2---|
D |--0----0------0---0---4--4--4---2----------4---0--------0---------0----0---|
A |--0-------------------------------------------------3--------2----0----0---|
E |---------------------------------------------------------------------------|
     I    once had a     girl,     or  should I   say, she once had me.

     D                                                               D    D 
E |--2----2------2---2---2--2--2------------------2------------------2----0h2-|
B |--3----3------3---3---3--3--3------------------3--------3---------3----3---|
G |--2----4------2---0---0--0--0-------0----------2--------0---------2----2---|
D |--0----0------0---0---4--4--4---2----------4---0--------0---------0----0---|
A |--0-------------------------------------------------3--------2----0----0---|
E |---------------------------------------------------------------------------|
     She  showed me  her room,     is  n't    it  good nor-we - gian wood.

bridge:        
           Dm                                            G 
E |--------1---------------------------------------------3--------------------|
B |--------3---------------------------------------------0--------------------|
G |--------2---------------------------------------------0--------------------|
D |--------0---------------------------------------------0--------------------|
A |--------0---------------------------------------------2--------------------|
E |------------------------------------------------------3--------------------|
      She  asked me to stay and she told me to sit any - where.

   Dm                                           G              A 
|--1--------------------------------------------3--------------0------------|
|--3--------------------------------------------0--------------2------------|
|--2--------------------------------------------0--------------2------------|
|--0--------------------------------------------0--------------2------------|
|--0--------------------------------------------2--------------0------------|
|-----------------------------------------------3---------------------------|
   I looked around and I noticed there wasn't a chair.

I sat on a rug, biding my time
drinking her wine.
We talked until two, and then she said
it's time for bed.

repeat 1st measure

She told me she worked in the morning
and started to laugh.
I told her I didn't
and crawled off to sleep in the bath.

And, when I awoke, I was alone
this bird had flown.
So, I lit a fire, isn't it good
Norwegian wood.

repeat 1st measure

notes:        
1.  Spacing doesn't indicate timing - I just lined the tab up with the lyrics.
2.  Chords are tabbed for their first beat only.  The D  chord is strummed down,
    up, down.  Note the hammer-on at the end of each measure.
3.  Holding the D  chord, use your pinky for 3rd fret notes and index finger
    for 1st fret notes, middle finger for 3rd fret on the A  string.
4.  Have an accompanist play along without a capo:
     E     D     E     D    (bridge)  Em    A    Em     A   B 


© Авторские права на тексты, песни, видео и другую представленную информацию принадлежат правообладателям. Аккорды, табы, gtp и тексты песен взяты из открытых источников.
Возрастная категория сайта: 18+
Тексты некоторых песен могут содержать нецензурные выражения, брань.
© 2020 guitar-chords.ru