|-----------2--------2--------|-----------------2---2-------|
|-----------3--------3--------|-----------------3---3-------|
|----2------2--------2--------|--2h4--2--0------2---2-------|
|-----------0--------0--------|-------------4---0---0-------|
|-----------0--------0--------|-----------------0---0-------|
|-----------------------------|-----------------------------|

|-----------------2---2-------|------------2--2--2--2--2--2-|
|-----------------3---3-------|------------3--3--3--3--3--3-|
|------0----------2---2-------|----0-------2--2--2--2--2--2-|
|---2-----4---0---0---0-------|------------0--0--0--0--0--0-|
|-----------------0---0-------|--3---2--0--0--0--0--0--0--0-|
|-----------------------------|-----------------------------|

|----1---1---1----1---0-------|----0------------------------|
|----3------------3-------3---|----3---3---1-----1---3---1--|
|----2------------2-----------|----2-------------0----------|
|----0------------0-----------|----0-------------2----------|
|-----------------------------|------------------3----------|
|-----------------------------|-----------------------------|

    (strum a few times)
|-----------------------------|----1---1---1----1---0-------|
|----3------------------------|----3------------3-------3---|
|----0------------------------|----2------------2-----------|
|----0------------------------|----0------------0-----------|
|----2------------------------|-----------------------------|
|----3------------------------|-----------------------------|

|----0------------------------|----0------------0-----------|

|----2------------------------|-----------------------------|

|----3------------------------|-----------------------------|

                              (strum a little)(strum a little)
|----0------------------------|------0-------|-------0------|
|----3---3---1-----1---3---1--|------3-------|-------2------|
|----2-------------0----------|------0-------|-------0------|
|----0-------------2----------|------2-------|-------2------|
|------------------3----------|------0-------|-------0------|
|-----------------------------|--------------|--------------| (then back to verse)

LYRICS:        
I once had a girl, or should I say, she once had me.
She showed me her room. Isn't it good, Norwegian Wood?

She asked me to stay, and she told me to sit anywhere.
So I looked around, and I noticed there wasn't a chair.

I sat on a rug, biding my time, drinking her wine.
We talked until two, and then she said, it's time for bed.

She told me she worked in the morning and started to laugh.
I told her I didn't and crawled off to sleep in the bath.

And, when I awoke, I was alone. This bird had flown.
So, I lit a fire. Isn't it good, Norwegian Wood?

© Авторские права на тексты, песни, видео и другую представленную информацию принадлежат правообладателям. Аккорды, табы, gtp и тексты песен взяты из открытых источников.
Возрастная категория сайта: 18+
Тексты некоторых песен могут содержать нецензурные выражения, брань.
© 2021 guitar-chords.ru