1)-----------------------------------------------------------------
2)--------------3-5-6-5--3-3--3-3-1--------------------------------
3)---0------2-4---------------------3-2-0-3--2-2--0---2-0-----2-2--
4)-----3-3------------------------------------------3-----0-3------
5)-----------------------------------------------------------------
6)-----------------------------------------------------------------

1)-----------------------------------------------------------------
2)--------------3-5-6-5--3-3--3-3-1--------------------------------
3)---0------2-4---------------------3-2-0-3--2-2--0---2-0-----2-2--
4)-----3-3------------------------------------------3-----0-3------
5)-----------------------------------------------------------------
6)-----------------------------------------------------------------

1)-----------------------------------------------------------------
2)------3-5-6-5-3-5-3-1-3---------3-5-6-5-3-5-3-1-5-6--------------
3)--2-2-------------------2---2-2----------------------------------
4)-----------------------------------------------------------------
5)-----------------------------------------------------------------
6)-----------------------------------------------------------------


© Авторские права на тексты, песни, видео и другую представленную информацию принадлежат правообладателям. Аккорды, табы, gtp и тексты песен взяты из открытых источников.
Возрастная категория сайта: 18+
Тексты некоторых песен могут содержать нецензурные выражения, брань.
© 2020 guitar-chords.ru