INTRO:        
     FM7   G7     Bb FM7 
     v  v  v  v   v  v    v   v
e |-------------|---------------
B |-------------|----1--1-------
G |-----2--0----|-3--2--2-------
D |--3-----3--0-|-3--3--3-------
A |--3-----2----|-1--3--3-------
E |--1-----3----|---------------

VERSE:        
      FM7                Em7      A7         Dm          Dm/C 
   /  v    v   v   v     v   v    v    v     v   v   v   v
e ||------------------|----------------0-1-|-0-------------|
B ||------------------|--------0--2--3-----|-----3-3---3---|
G ||--0---------------|------2----0--------|---2-------2---|
D ||----3--3---------3|------0-------------|-0-------0-----|
A ||-------3-----0-3--|----2------0--------|-------------3-|
E ||--1--------1------|--0-----------------|---------------|
   \

    BbM7       C7         FM7            Dm   G7     Bb FM7 
    v    v     v     v     v  v   v  v   v v  v  v   v  v  v  v \
e |----------------------|-------------|-----------|------------||
B |------3--3--1---------|-1--1-1------|-----------|----1-1-----||
G |------2--------3--2-0-|-3--2------0-|---2--0----|-3--2-2-----||
D |---3------------------|-3--3------2-|-3----3--0-|-3--3-3-----||
A |-1----------3---------|-3--3--------|-5----2----|-1--3-3-----||
E |----------------------|-------------|------3----|------------||
                                                                /
BRIDGE:        
     Em7   A7     Dm  C7  BbM7    C7          FM7 
     v  v  v  v   v   v   v v     v  v   v v   v  v  v  v
e |-------------|-----0---1-0---|-0----------|------------|
B |-------------|-3-----1-3---3-|------3-1-3-|-1----------|
G |--2-----2----|---2-----2-----|----3-------|-2----------|
D |--0-----5----|-0-------------|---2--------|-3----------|
A |--2-----0----|-----3---1-----|-3----------|-3----------|
E |--0----------|---------------|------------|------------|

     Em7   A7     Dm  C7  BbM7    C7          FM7 
     v  v  v  v   v   v   v v     v  v   v v   v  v  v  v
e |-------------|-----0---1-0---|-0----------|-1----------|
B |-------------|-3-----1-3---3-|------3-1-3-|-1--1-------|
G |--2-----2----|---2-----2-----|----3-------|-2-----3--2-|
D |---0-----5---|-0-------------|---2--------|-3----------|
A |-----2--0--4-|-----3---1-----|-3----------|-3----------|
E |--0----------|---------------|------------|------------|

VERSE:        
     FM7                Em7      A7         Dm          Dm/C 
     v    v   v   v     v   v    v    v     v   v   v   v
e |------------------|----------------0-1-|-0-------------|
B |------------------|--------0--2--3-----|-----3-3---3---|
G |--0---------------|------2----0--------|---2-------2---|
D |----3--3---------3|------0-------------|-0-------0-----|
A |-------3-----0-3--|----2------0--------|-------------3-|
E |--1--------1------|--0-----------------|---------------|

    BbM7       C7         FM7            Dm   G7     Bb FM7 
    v    v     v     v     v  v   v  v   v v  v  v   v  v  v  v
e |----------------------|-------------|-----------|------------|
B |------3--3--1---------|-1--1-1------|-----------|----1-1-----|
G |------2-------3-2--0--|-3--2------0-|---2--0----|-3--2-2-----|
D |---3------------------|-3--3------2-|-3----3--0-|-3--3-3-----|
A |-1----------3---------|-3--3--------|-5----2----|-1--3-3-----|
E |----------------------|-------------|------3----|------------|

CODA:        
    Dm   G7    Bb  F 
    v v  v  v   v  v  v v
e |-----------|----1--1---|
B |-----------|----1--1---|
G |---2--0----|-3--2--2---|
D |-3----3--0-|-3--3--3---|
A |-5----2----|-1--3--3---|
E |------3----|----1--1---|


© Авторские права на тексты, песни, видео и другую представленную информацию принадлежат правообладателям. Аккорды, табы, gtp и тексты песен взяты из открытых источников.
Возрастная категория сайта: 18+
Тексты некоторых песен могут содержать нецензурные выражения, брань.
© 2020 guitar-chords.ru