Инструмент: Гитара (6-ти струнная) поменять
Строй: Standart (E A D G B E) поменять
Без каподастра поменять

   E5 
e|-x-|---|---|
B|-x-|---|---|
G|---|---|-9-|
H|---|---|-9-|
A|-7-|---|---|
E|-x-|---|---|

   B5 
e|-x-|---|---|
B|-x-|---|---|
G|-x-|---|---|
H|---|---|-9-|
A|---|---|-9-|
E|-7-|---|---|

(не помню как он называется, пусть будет XXX )
e|-x-|---|----|
B|-x-|---|----|
G|-x-|---|----|
H|---|---|-11-|
A|---|---|-11-|
E|-9-|---|----|

   A5 
e|-x-|---|---|
B|-x-|---|---|
G|-x-|---|---|
H|---|---|-7-|
A|---|---|-7-|
E|-5-|---|---|

вступление
A|-----7---7---7----9---9----9---
E| ---5---5---5----7---7---7------ E5 

E5             XXX         A5           B5 
Ветер по крыше и разговоры я точно знаю что кроме Авроры
Нет никого лучше на всех каналах она просто супер она на пять баллов
E5             XXX         A5           B5 
Нет мне не нужен кокс и гашиш я точно знаю что Ксения Стриж
Именно мне улыбнулась c экрана снова открыта сердечная рана

E5      B5     XXX    A5     E5     B5      XXX    A5 
Пусть летят во все концы далеко далеко валентинки
Не понятны никому моего моего сердце линки

ещё один там проигрыш где-то...
H|--7-7-7-4-4-4-5-5-5-4-4-4------------7-7-7-4-4-4-5-5-5-4-4---------------|
A|---------------------------5-5---------------------------------5-5---7-7-| } 2x
E|--------------------------------5-5--------------------------------------|
ну вот вроде и все... дальше все играется точно так же...
сэнькс...

            

© Авторские права на тексты, песни, видео и другую представленную информацию принадлежат правообладателям. Аккорды, табы, gtp и тексты песен взяты из открытых источников.
Возрастная категория сайта: 18+
Тексты некоторых песен могут содержать нецензурные выражения, брань.
© 2021 guitar-chords.ru