Official version

Вступление:
гитара
E||--------------------------|--------------------------|-------------------|
B||--------------------------|--------------------------|-------------------|
G||--------------------------|--------------------------|-------------------|
D||--------5--------5-----5--|--------4--------4-----4--|--5----------------|
A||--3--3-----3--3-----3-----|--5--5-----5--5-----5-----|--5----------------|
E||--------------------------|--------------------------|--3----------------|
бас
G||--------------------------|--------------------------|--------------------|
D||--------------------------|--------------------------|--------------------|
A||--3--3--3--3--3--3--3--3--|--5--5--5--7--7--7--9-----|--10----------------|
E||--------------------------|--------------------------|--------------------|

Первый куплет:
E||--------------------------|--------------------------|--------------------------|
B||--------------------------|--------------------------|--------------------------|
G||--------------------------|--------------------------|--------------------------|
D||--------------------------|--------------------------|--------5--------5-----5--|
A||--------5--------5-----5--|--------7--------7-----7--|--3--3-----3--3-----3-----|
E||--3--3-----3--3-----3-----|--0--0-----0--0-----0-----|--------------------------|

--------------------------|--------------------------|--------------------------|
--------------------------|--------------------------|--------------------------|
--------------------------|--------------------------|--------------------------|
--------4--------4-----4--|--------------------------|--------------------------|
--5--5-----5--5-----5-----|--------5--------5-----5--|--------7--------7-----7--|
--------------------------|--3--3-----3--3-----3-----|--0--0-----0--0-----0-----|

--------------------------|--------------------------|-------------------|
--------------------------|--------------------------|-------------------|
--------------------------|--------------------------|-------------------|
--------5--------5-----5--|--------4--------5--------|--7----------------|
--3--3-----3--3-----3-----|--5--5-----5--5-----5--5--|--5----------------|
--------------------------|--------------------------|-------------------|

Соло №1:
ритм-гитара
     G                          G                          C                 D        D 
E||--------------------------|--------------------------|--------------------------|--------------------------|
B||--------------------------|--------------------------|--------------------------|--------------------------|
G||--4--4--4--4--4--4--4--4--|--4--4--4--4--4--4--4--4--|--5--5--5--5--5--5--7--7--|--7--7--7--7--7--7--7--7--|
D||--5--5--5--5--5--5--5--5--|--5--5--5--5--5--5--5--5--|--5--5--5--5--5--5--7--7--|--7--7--7--7--7--7--7--7--|
A||--5--5--5--5--5--5--5--5--|--5--5--5--5--5--5--5--5--|--3--3--3--3--3--3--5--5--|--5--5--5--5--5--5--5--5--|
E||--3--3--3--3--3--3--3--3--|--3--3--3--3--3--3--3--3--|--3--3--3--3--3--3--5--5--|--5--5--5--5--5--5--5--5--|
соло
E||--------------------------|--------------------------|--------------------------|--------------------------|
B||--------------------------|--------------------------|--------------------------|--------------------------|
G||--7--7--7--4--4--4--5--5--|--5--4--4--4--------------|--7--7--7--4--4--4--5--5--|--5--4--4--4--------------|
D||--------------------------|--------------5--5--------|--------------------------|--------------5--5--7--7--|
A||--------------------------|--------------------5--5--|--------------------------|--------------------------|
E||--------------------------|--------------------------|--------------------------|--------------------------|

Второй куплет:
E||-------------------|------|------|------|
B||-------------------|------|------|------|
G||-------------------|------|------|------|
D||-------------------|------|------|------|
A||-------------------|------|------|------|
E||--3----------------|------|------|------|
     G                          Em                         C                          D 
E||--------------------------|--------------------------|--------------------------|--------------------------|
B||--------------------------|--------------------------|--------------------------|--------------------------|
G||--------------------------|--------------------------|--------5--------5-----5--|--------7--------7--------|
D||--------5--------5-----5--|--------2--------2-----2--|--------5--------5-----5--|--------7--------7--------|
A||--------5--------5-----5--|--------2--------2-----2--|--3--3-----3--3-----3--3--|--5--5-----5--5-----5--5--|
E||--3--3-----3--3-----3-----|--0--0-----0--0-----0-----|--------------------------|--------------------------|

-----------------------------|
-----------------------------|
--7--------------------------|
---------7-------------------|
----------------5------------|
-----------------------------|

Припев (x2):
     G                          D                          Em                         C 
E||--------------------------|--------------------------|--------------------------|--------------------------|
B||--------------------------|--------------------------|--------------------------|--------------------------|
G||--------------------------|--7--7--7--7--7--7--7--7--|--------------------------|--5--5--5--5--5--5--5--5--|
D||--5--5--5--5--5--5--5--5--|--7--7--7--7--7--7--7--7--|--2--2--2--2--2--2--2--2--|--5--5--5--5--5--5--5--5--|
A||--5--5--5--5--5--5--5--5--|--5--5--5--5--5--5--5--5--|--2--2--2--2--2--2--2--2--|--3--3--3--3--3--3--3--3--|
E||--3--3--3--3--3--3--3--3--|--------------------------|--0--0--0--0--0--0--0--0--|--------------------------|
  G                          D                          Em                            C 
--------------------------|--------------------------|--------------------------|--------------------------|
--------------------------|--------------------------|--------------------------|--------------------------|
--------------------------|--7--7--7--7--7--7--7--7--|--------------------------|-----5--5--5--5--5--5--5--|
--5--5--5--5--5--5--5--5--|--7--7--7--7--7--7--7--7--|--2--2--2--2--2--2--2--2--|--2--5--5--5--5--5--5--5--|
--5--5--5--5--5--5--5--5--|--5--5--5--5--5--5--5--5--|--2--2--2--2--2--2--2--2--|--2--3--3--3--3--3--3--3--|
--3--3--3--3--3--3--3--3--|--------------------------|--0--0--0--0--0--0--0--0--|--0-----------------------|

Проигрыш (x2):
     G                          G             Em         C                                        D 
E||--------------------------|------------------------|--------------------------|------------------------|
B||--------------------------|------------------------|--------------------------|------------------------|
G||--------------------------|------------------------|--5--5--5--5--5--5--5--5--|--5--5--5--5----7--7----|
D||--5--5--5--5--5--5--5--5--|--5--5--5--5----2--2----|--5--5--5--5--5--5--5--5--|--5--5--5--5----7--7----|
A||--5--5--5--5--5--5--5--5--|--5--5--5--5----2--2----|--3--3--3--3--3--3--3--3--|--3--3--3--3----5--5----|
E||--3--3--3--3--3--3--3--3--|--3--3--3--3----0--0----|--------------------------|------------------------|
Вторая половина третьего куплета (на приглушенных струнах):
E||--3--3-----2--2-----2-----|--3--3-----2--2-----2-----|--3--3-----2--2-----2-----|--3--3-----2--2-----2-----|
B||--------3--------3-----3--|--------0--------0-----0--|--------1--------1-----1--|--------3--------3-----3--|
G||--------------------------|--------------------------|--------------------------|--------------------------|
D||--------------------------|--------------------------|--------------------------|--------------------------|
A||--------------------------|--------------------------|--------------------------|--------------------------|
E||--------------------------|--------------------------|--------------------------|--------------------------|

© Авторские права на тексты, песни, видео и другую представленную информацию принадлежат правообладателям. Аккорды, табы, gtp и тексты песен взяты из открытых источников.
Возрастная категория сайта: 18+
Тексты некоторых песен могут содержать нецензурные выражения, брань.
© 2020 guitar-chords.ru